Song name
# A B C D E F G H I J K L M N O P Q R S T U V W X Y Z

Depeche Mode - Nothings Impossible tab

Depeche Mode
Nothings Impossible
Playing the Angle

Intro:

e|-------------------------------------------|
B|-------------------------------------------|
G|-------------------------------------------|
D|-------------------------------------------|
A|-------------------------------------------|
E|0--0--0--0-0--0--0--0-0--0--0--0-0--0-0--0-|

e|-------------------------------------------|
B|-------------------------------------------|
G|-------------------------------------------|
D|-------------------------------------------|
A|-------------------------------------------|
E|0--0--0--0-1--1--1--1-0--0--0--0-0--0-0--0-|

Verse 1:
e|-------------------------------------------|
B|-------------------------------------------|
G|-------------------------------------------|
D|-------------------------------------------|
A|-------------------------------------------|
E|0--0--0--0-1--1--1--1-0--0--0--0-0--0--0-0-|

e|-------------------------------------------|
B|-------------------------------------------|
G|-------------------------------------------|
D|-------------------------------------------|
A|-------------------------------------------|
E|0--0--0--0-1--1--1--1-5--5--5--5-0--0--0-0-|

e|-------------------------------------------|
B|-------------------------------------------|
G|-------------------------------------------|
D|-------------------------------------------|
A|-------------------------------------------|
E|0--0--0--0-1--1--1--1-0--0--0--0-0--0--0-0-|

e|-------------------------------------------|
B|-------------------------------------------|
G|-------------------------------------------|
D|-------------------------------------------|
A|-------------------------------------------|
E|0--0--0--0-1--1--1--1-5--5--5--5-5--5--5-5-|

e|-------------------------------------------|
B|-------------------------------------------|
G|-------------------------------------------|
D|-------------------------------------------|
A|-------------------------------------------|
E|5--5--5--5-5--5--5--5-5--5--5--5-----------|

Chorus:

e|---------------------------------------------------------|
B|---------------------------------------------------------|
G|---------------------------------------------------------|
D|---------------------------------------------------------|
A|---------------------------------------------------------|
E|7--7--7-7--7-8--8--8-8--8--8--3--3--0-0--0-0--0--0--0--0-|

e|---------------------------------------------------------|
B|---------------------------------------------------------|
G|---------------------------------------------------------|
D|---------------------------------------------------------|
A|---------------------------------------------------------|
E|7--7--7-7--7-8--8--8-8--5--5--3--3--3-3--3-0--0--0--0--0-|

Pre-Verse
e|---------------------------------------------------------|
B|---------------------------------------------------------|
G|---------------------------------------------------------|
D|---------------------------------------------------------|
A|---------------------------------------------------------|
E|0--0--0--0-0--0--0--0-0--0--0--0-0--0--0--0-0--0--0--0---|

e|---------------------------------------------------------|
B|---------------------------------------------------------|
G|---------------------------------------------------------|
D|---------------------------------------------------------|
A|---------------------------------------------------------|
E|0--0--0--0-0--0--0--0-0--0--0--0-0--0--0--0-0--0--0--0---|

Verse 2:

e|-------------------------------------------|
B|-------------------------------------------|
G|-------------------------------------------|
D|-------------------------------------------|
A|-------------------------------------------|
E|0--0--0--0-1--1--1--1-0--0--0--0-0--0--0-0-|

e|-------------------------------------------|
B|-------------------------------------------|
G|-------------------------------------------|
D|-------------------------------------------|
A|-------------------------------------------|
E|0--0--0--0-1--1--1--1-5--5--5--5-0--0--0-0-|

e|-------------------------------------------|
B|-------------------------------------------|
G|-------------------------------------------|
D|-------------------------------------------|
A|-------------------------------------------|
E|0--0--0--0-1--1--1--1-0--0--0--0-0--0--0-0-|

e|-------------------------------------------|
B|-------------------------------------------|
G|-------------------------------------------|
D|-------------------------------------------|
A|-------------------------------------------|
E|0--0--0--0-1--1--1--1-5--5--5--5-5--5--5-5-|

Chorus:

e|---------------------------------------------------------|
B|---------------------------------------------------------|
G|---------------------------------------------------------|
D|---------------------------------------------------------|
A|---------------------------------------------------------|
E|7--7--7-7--7-8--8--8-8--8--8--3--3--0-0--0-0--0--0--0--0-|

e|---------------------------------------------------------|
B|---------------------------------------------------------|
G|---------------------------------------------------------|
D|---------------------------------------------------------|
A|---------------------------------------------------------|
E|7--7--7-7--7-8--8--8-8--5--5--3--3--3-3--3-0--0--0--0--0-|

e|---------------------------------------------------------|
B|---------------------------------------------------------|
G|---------------------------------------------------------|
D|---------------------------------------------------------|
A|---------------------------------------------------------|
E|7--7--7-7--7-8--8--8-8--8--8--3--3--0-0--0-0--0--0--0--0-|

e|---------------------------------------------------------|
B|---------------------------------------------------------|
G|---------------------------------------------------------|
D|---------------------------------------------------------|
A|---------------------------------------------------------|
E|7--7--7-7--7-8--8--8-8--5--5--3--3--3-3--3-0--0--0--0--0-|

Bridge:

e|---------------------------------------------------------|
B|---------------------------------------------------------|
G|---------------------------------------------------------|
D|---------------------------------------------------------|
A|---------------------------------------------------------|
E|7--7--7-7--7-8--8--8-8--8--8--3--3--0-0--0-0--0--0--0--0-|

e|---------------------------------------------------------|
B|---------------------------------------------------------|
G|---------------------------------------------------------|
D|---------------------------------------------------------|
A|---------------------------------------------------------|
E|7--7--7-7--7-8--8--8-8--5--5--3--3--3-3--3-0--0--0--0--0-|
e|---------------------------------------------------------|
B|---------------------------------------------------------|
G|---------------------------------------------------------|
D|---------------------------------------------------------|
A|---------------------------------------------------------|
E|7--7--7-7--7-8--8--8-8--8--8--3--3--0-0--0-0--0--0--0--0-|

e|---------------------------------------------------------|
B|---------------------------------------------------------|
G|---------------------------------------------------------|
D|---------------------------------------------------------|
A|---------------------------------------------------------|
E|7--7--7-7--7-8--8--8-8--5--5--3--3--3-3--3-0--0--0--0--0-|

Outro:

e|--------------------------------------------------------|
B|--------------------------------------------------------|
G|--------------------------------------------------------|
D|4--4--4-4--5-5--5--5-5--2-2-----------------------------|
A|----------------------------0--0-2----------------------|
E|-----------------------------------0--------------------|  X4


What a great song...
This Tab was Tabbed by Meidan Greenberg, From Israel.

If you have notes for me, email me at metalic_Dream@nana.co.il

Or chat with me on the MSN: djmastermeidan@Walla.co.il

Good luck and Peace!
Tap to rate this tab
 
# A B C D E F G H I J K L M N O P Q R S T U V W X Y Z