Song name
# A B C D E F G H I J K L M N O P Q R S T U V W X Y Z

Depeche Mode - Clean Acoustic tab

Help us improve GuitareTab! Take a short survey!
  tabbed by D.Lukatscher
        Clean (bare acoustic)

        [Bm]Clean
	The cleanest I've been
	An end to the tears
	And the in-between years
	And the troubles  [Em] I've seen   [D]

        [D]Now that I'm [Bm] clean
	You know what I mean
	I've broken my fall
	Put an end to it all
	I've changed my [Em]routine  [D]
	Now I'm [Bm] clean

	I [A] don't understand
	What [G]destiny's planned
	I'm [Bm]starting to grasp
	What is [G] in my own hands

	I [A] don't claim to know
	Where my [G] holiness goes
	I just [Bm] know that I like
	What is [G] starting to show

	[C] Sometimes

	[Bm] Clean...

        As years go by
        All the feelings inside
        Twist and they turn
        As they ride with the tide

       I don't advise
       And I don't criticise
       I just know I what I like
       With my own eyes

       Sometimes

       Clean...

       Sometimes


   Bm
|-------2----------||
|-----3---3--------||
|---4-------4------||
|-4----------------||
|------------------||
|------------------||


  Em
|-------7----------||
|-----8---8--------||
|---9-------9------||
|-9----------------||
|------------------||
|------------------||

   D
|-------2----------||
|-----3---3--------||
|---2-------2------||
|-0----------------||
|------------------||
|------------------||

   A
|-------0----------||
|---------2--------||
|-----2-----2------||
|---2--------------||
|-0----------------||
|------------------||

  G
|----------------------||
|-------0--------------||
|---------0------------||
|-----0-----0----------||
|---2------------------||
|-3--------------------||

  C
|----------------------||
|-------1--------------||
|-----0---0------------||
|---2-------1----------||
|-3--------------------||
|----------------------||


this is only an example how to play the chords. listen to this nice version...any 
write to d.lukatscher@gmx.de
Related for Clean Acoustic tab