Guitaretab - guitar tabs
Song name
# A B C D E F G H I J K L M N O P Q R S T U V W X Y Z

Depeche Mode - A Pain That Im Used To Live tab

A Pain That I'm Used to Live at the Shoreline Ampitheatre On April 27, 2006
was a great performance and the perfect opener for the concert

 Intro
 |-------| This is what is played a bunch of times (I didnt put the exact
 |-------| amount), you just play that a couple of times. Both Keyboards
 |----3--| are actually playing this part rather than the guitar, but this
 |-3--3--| is an alternate way to play it.
 |-3--1--|
 |-1-----|


 Verse (Guitar 1)
 |-----------------------| You are Also going to play this throughout the
 |-----------------------| entire song except on the chorus but other than
 |-----------------------| that, you are always playing this part. Listen to
 |-----------------------| the song and you'll know what I mean.
 |-----------------------|
 |-0-0-0-0-0-0-0-0-3-0-3-|

 Verse (Guitar 2) part 1
 |-----------------------| Note that this Part is only played once (on the
 |-9----7----5---4-------| 5th time Guitar 1 does that verse part).
 |------------------4----|
 |-----------------------|
 |-----------------------|
 |-----------------------|
[ Tab from: http://www.guitaretab.com/d/depeche-mode/75622.html ]
 Verse (Guitar 2) part 2
 |-----------------------|-----------------------|
 |-----3--2--3--4--------|----3--2--3--4--5--6/--|
 |-----------------5-----|-----------------------|
 |-----------------------|-----------------------|
 |--2--------------------|--2--------------------|
 |-3---------------------|-3---------------------|
 I Think that the part above is played twice, you play it right after Dave Gahan 
saying: "...But the key is a question of control."

 Chorus (both guitars)
 |-----------------------|-----------------------|x 2
 |-----------------------|-----------------------|
 |----------3-3-3--6-6-6-|-----------------------|
 |-3--3--3--3-3-3--6-6-6-|-6-6-------------------|
 |-3--3--3--1-1-1--4-4-4-|-6-6-------------------|
 |-1--1--1---------------|-4-4-------------------|
 This is usually only played with the keyboards, but this is an alternate   way to play 
chorus with the guitar

 Thats all there is to it so here's the Order of the Song
Intro
Verse (Guitar 1) play throughout whole song
Verse (Guitar 2) part 1
Verse (Guitar 2) part 2
Chorus
Intro
Verse (Guitar 1)
Verse (Guitar 2) part 2
Chorus
Related for A Pain That Im Used To Live tab
×
Best way to learn
"A Pain That Im Used To Live"