Song name
# A B C D E F G H I J K L M N O P Q R S T U V W X Y Z

Depeche Mode - Puppets tab

Em
Get that feeling
Head is reeling
    D                                     Em
You think you're in control but you don't know me babe
I can move you
I can soothe you
D
I can take you places in a different way

    A
And I don't you think you understand
B
What I'm trying to say

I'll be your operator baby
I'm in control


---[Em]-----------[C]------[D]------------[Em]-----|

E--------------------------------------------------| 2x
B------------------------------------------0-------|
G----------0------2-0---------------0--------2-0---|
D-0-2--2-2---2--2-----0-2--0-2--0-2---2--2-------2-|
A--------------------------------------------------|
E--------------------------------------------------|

Em
Watch your action
Close reaction
    D                               Em
And everything you're thinking of inside your head
Conversation
My creation
D
Nothing that you do you'll do unless I said

    A
And i don't you know the consequences
B
Of the things you say

I'll be your operator baby
I'm in control

    F                         C
And all the things you try to do babe
    F                       C
And all the words we said before
    F                   C
Are only part of what I started baby
    Bm                G
And you can't stop me anymore....

Em
Get that feeling
Head is reeling
    D                                     Em
You think you're in control but you don't know me babe
I can move you
I can soothe you
D
I can take you places in a different way

    A
And I don't you think you understand
B
What I'm trying to say

I'll be your operator baby
I'm in control

E-3-0-3-2-3-0-2-3-5-3-2---0--3-0-2-3-5-3-2-0---------| 2x
B-----------------------3--------------------3-0-3-5-|
G----------------------------------------------------|
D----------------------------------------------------|
A----------------------------------------------------|
E----------------------------------------------------|
Tap to rate this tab
# A B C D E F G H I J K L M N O P Q R S T U V W X Y Z