Song name
# A B C D E F G H I J K L M N O P Q R S T U V W X Y Z

Depedro - Tu Mediodia tab

DEPEDRO
Tu mediodía

Great song by great singer/songwriter. I hope this somewhat does it justice.
This is based on a version he played on the radio, accompanied by a piano.

Verses:
----2-2----2-2----2-2----2-2--|
----2-2----2-2----2-2----2-2--|
----2-2----2-2----2-2----2-2--|
--4------2------0------0------|
------------------------------|
------------------------------|

La, la, la's:
----2--2--2--2------2--2--2--2------2--2--2--2-------------------2--2--2--...|
----2--2--2--2------2--2--2--2------2--2--2--2-------------------2--2--2--...|
----2--2--2--2------2--2--2--2------2--2--2--2-------------------2--2--2--...|
--4---------------2---------------0----------------2----------4-----------...|
---------------------------------------------------------4----------------...|
--------------------------------------------------------------------------...|
       La-la-la,       la-la-la,       la-la-la,   laa---laa--laa.  La-la-...|


No abría error si yo volviera a empezar
Todo seria dulce todo hasta el final
Inventaría una prisión de soledad
Para olvidarla y no encontrarla nunca mas

La, la, la...

Lo haría todo como si fuera a morir
Me frotaría contra tu felicidad
Esa que lleva cada paso que tú das
Esa que vale lo que yo pueda soñar

Chorus:
F#m       Bm            A
Tú me regalas todos tus días
             E             F#m
Yo me acostumbro a tus caricias

D-----------|
A---------0-|
E--2--4-----|
             Bm                A
Si gastas tu vida junto a la mía
            E                F#m
Yo me aprovecho de tu mediodía

Escucharía los latidos de tu pecho
Cocinaría postres con tus besos
Me vestiría lleno de amuletos
Para protegerte de animales caroñeros

La, la, la...

No haría caso a los disfrazados
Ni gastaría mi energía en chucherías
No dudaría en desarmar a los armados
Voy a encontrar eso por lo que tú me querías

Chorus (2x)

(tabbed by Keven Poulin)
(keven_science@hotmail.com)
Tap to rate this tab
 
# A B C D E F G H I J K L M N O P Q R S T U V W X Y Z