Deportivo - Parmi Eux tab

Déportivo 
2004

			Parmi Eux                                    


Guitare
Accords : C5 A#5 D#5 G5 puis pour les refrains 1 : F5 G5


Couplet :
     C5          A#5           D#5        G5           
E||-------------------------|-------------------------|
B||-------------------------|-------------------------|
G||-------------------------|-------8-----------------|
D||-------10----------8--0--|-------8-----------5-----|
A||-------10--0-------8--0--|--6-------------5--5--5--|
E||--8-----------6----------|----------0--3--3--3--3--|


Refrain 1
     F5                     G5                                 
E||------------------------|------------------------|
B||------------------------|------------------------|
G||------------------------|------------------------|
D||--3------3--3--3--3--3--|--5------5--5--5--5--5--|
A||--3------3--3--3--3--3--|--5------5--5--5--5--5--|
E||--1------1--1--1--1--1--|--3------3--3--3--3--3--|


Refrain 2
E||------------------------------|--------------------------|
B||------------------------------|--------------------------|
G||------------------------------|--8--8--8--8--------------|
D||--10--10--10--10--8--8--8--8--|--8--8--8--8--5--5--5--5--|
A||--10--10--10--10--8--8--8--8--|--6--6--6--6--5--5--5--5--|
E||--8---8---8---8---6--6--6--6--|--------------3--3--3--3--|

Petit solo :

E||----------------------------------|-------------------------------|
B||--13--13--13--13--12--12--12--12--|--11--11--11--11--10--10-10-10-|
G||----------------------------------|-------------------------------|
D||----------------------------------|-------------------------------|
A||----------------------------------|-------------------------------|
E||----------------------------------|-------------------------------|


                                                                      
----------------------------------|---------------------------------|
--11--11--11--11--12--12--12--12--|-13-13--13--13--12--12--12--12-13|
----------------------------------|---------------------------------|
----------------------------------|---------------------------------|
----------------------------------|---------------------------------|
----------------------------------|---------------------------------|

*****************

   Paroles :

*******************


Couplet 1
On  serra pas tous perdant même le dernier des derniers 
On paiera tous en sortant et les cancres en premiers 
Mais l’amour vrai attend qu’on se soit consumé
Je sais j’ai plus l’élan je sais ou on a pied

refrain 1
J’oubliais comment on sortait quand 
Vous disiez encore du vent du vent



Couplet 2
Mais Dieu aime mes parents Pour un cierge allumé 
on fait moins les sentiments et ma tête pourra trembler 
Si j'ai une mère, elle m'attend et j'irais sans trainer 
si je dis vrais, je mens je sais ou on a pied

refrain 1
J’oubliais comment on sortait quand 
Vous disiez encore du vent du vent

Refrain 2
J’avais rêvé d’être parmi vous
Et de m’accorder le droit de vous dire aller vous faire 
foutre
J’avais rêvé d’être  avec vous 
Mais à voir de prés autant s’adresser à la foudre 


Couplet 3 (1)
On  serra pas tous perdant même le dernier des derniers 
On paiera tous en sortant et les cancres en premiers 
Mais l’amour vrai attend qu’on se soit consumé
Je sais j’ai plus l’élan je sais ou on a pied

refrain 1
J’oubliais comment on sortait quand 
Vous disiez encore du vent du vent


Refrain 2
J’avais rêvé d’être parmi vous
Et de m’accorder le droit de dire aller vous faire foutre
J’avais rêvé d’être  avec vous 
Mais à voir de prés [ autant s’adresser à la foudre X4 



Tabler par gwendal.mollo@orange.fr
Tap to rate this tab
 
# A B C D E F G H I J K L M N O P Q R S T U V W X Y Z