Song name
# A B C D E F G H I J K L M N O P Q R S T U V W X Y Z

Deportivo - Domino tab

-------------------------------------------------------------------------------
                              Déportivo - Domino
-------------------------------------------------------------------------------
Album : Domino (2013)
Tempo : 161
E-mail: gwendal.mollo@orange.fr
Tabbed by: newg

Guitare 1, capo 3

Intro, Couplets :
    Am                    Em 
E |--0-----0-----0--0--0--0L---|--0--0-----0-----0--0-------|
B |--1-----1-----1--1--0--0L---|--0--0-----0-----0--0-------|
G |--2-----2-----2--2--0--0L---|--0--0-----0-----0--0-------|
D |--2-----2-----2--2--x--2L---|--2--2-----2-----2--2-------|
A |--0-----0-----0--0-----2L---|--2--2-----2-----2--2-------|
E |-----------------------0L---|--0--0-----0-----0--0-------|

  F                    C
--1-----1-----1--1--0--0L---|--0--0-----0-----0--0-------||
--1-----1-----1--1--0--1L---|--1--1-----1-----1--1-------||
--2-----2-----2--2--0--0L---|--0--0-----0-----0--0-------||
--3-----3-----3--3--x--2L---|--2--2-----2-----2--2-------||
--3-----3-----3--3-----3L---|--3--3-----3-----3--3-------||  intro x1
--1-----1-----1--1----------|----------------------------||  Couplet x2

(Guitare 2 : Cm Gm G# D#)

Refrain :
    Dm                    Am
E |--1-----1-----1--1--0--0L---|--0--0-----0-----0--0-------|
B |--3-----3-----3--3--0--1L---|--1--1-----1-----1--1-------|
G |--2-----2-----2--2--0--2L---|--2--2-----2-----2--2-------|
D |--0-----0-----0--0--0--2L---|--2--2-----2-----2--2-------|
A |-----------------------0L---|--0--0-----0-----0--0-------|
E |----------------------------|----------------------------|
 
  C                    G
--0-----0-----0--0--0--3----|--3--3-----3-----3--3-------||
--1-----1-----1--1--0--0----|--0--0-----0-----0--0-------||
--0-----0-----0--0--0--0----|--0--0-----0-----0--0-------||
--2-----2-----2--2--0--0----|--0--0-----0-----0--0-------|| Refrain :
--3-----3-----3--3-----2----|--2--2-----2-----2--2-------|| 1,3 et final x 4
-----------------------3----|--3--3-----3-----3--3-------|| Refrain 2 x6

(Guitare 2 : Fm Cm D# A#)

Guitare 3 refrain : 

E |----------------------------|----------------------------|
B |----------------------------|----------------------------|
G |--13----13----13-12-10-12L--|--12-10---------------------|
D |----------------------------|-----------13L--------------|
A |----------------------------|----------------------------|
E |----------------------------|----------------------------|

                                              Ne pas jouer la 4éme fois
-------------------------------|----------------------------|
-------------------------------|----------------------------|
--13/15---------12-------10L---|--10-----------10----12-----|
-------------------------------|----------------------------|
-------------------------------|----------------------------|
-------------------------------|----------------------------| x4


Pont :
     Dm                                G
E |--1--1--1--1----|--1--1--1--1----|--3--3--3--3----|--3--3--3--3----|
B |--3--3--3--3----|--3--3--3--3----|--0--0--0--0----|--0--0--0--0----|
G |--2--2--2--2----|--2--2--2--2----|--0--0--0--0----|--0--0--0--0----|
D |--0--0--0--0----|--0--0--0--0----|--0--0--0--0----|--0--0--0--0----|
A |----------------|----------------|--2--2--2--2----|--2--2--2--2----|
E |----------------|----------------|--3--3--3--3----|--3--3--3--3----|

  C                                 Am
--0--0--0--0----|--0--0--0--0----|--0--0--0--0----|--0--0--0--0----|
--1--1--1--1----|--1--1--1--1----|--1--1--1--1----|--1--1--1--1----|
--0--0--0--0----|--0--0--0--0----|--2--2--2--2----|--2--2--2--2----|
--2--2--2--2----|--2--2--2--2----|--2--2--2--2----|--2--2--2--2----|
--3--3--3--3----|--3--3--3--3----|--0--0--0--0----|--0--0--0--0----|
----------------|----------------|----------------|----------------|

Guitare 3 :
E |-------|-------|-------|----------|-------|---------------|------------|
B |--13L--|--13---|--15---|--16-18---|--20---|---------------|------------| 
G |-------|-------|-------|----------|-------|--10---8--7----|-5----------| 
D |-------|-------|-------|----------|-------|---------------|------------|
A |-------|-------|-------|----------|-------|---------------|------------|
E |-------|-------|-------|----------|-------|---------------|------------|


Couplet 3, Guitare 3 :
E |----------------------------|----------------------------|
B |----------------------------|----------------------------|
G |----------------------------|----------------------------|
D |-----------------------5L---|--5-----5-----5--5--5--5----|
A |--3-----3-----3--3--6-------|----------------------------|
E |----------------------------|----------------------------|


----------------------------|----------------------------|
----------------------------|----------------------------|
----------------------------|----------------------------|
--6-----6-----6--5--3--5L---|--5-------------------------|
----------------------------|-----6-----3L----------3----|
----------------------------|----------------------------|


----------------------------|----------------------------|
----------------------------|----------------------------|
--5-----5-----5-------------|----------------------------|
-----------------8--6--5L---|--5--5-----5-----5--5--5----|
----------------------------|----------------------------|
----------------------------|----------------------------|


----------------------------|----------------------------||
----------------------------|----------------------------||
----------------------------|----------------------------||
--6-----6-----6--5-----5L---|--5-------------------------||
--------------------8-------|-----6-----3L----------3----||
----------------------------|----------------------------|| x2



Outro :
Gtr 1   Dm      G       C
Gtr 2   Fm      A#      D#
   E |-------|-------|-------|-------||
   B |-------|-------|-------|-------||
   G |--13---|--12---|-------|-------||
   D |-------|-------|--13L--|--13---||
   A |-------|-------|-------|-------||
   E |-------|-------|-------|-------||


Intro
Couplet 1
Refrain 1
Couplet 2
Refrain 2
Pont
Couplet 3
Refrain 3
Refrain Final
Outro
Tap to rate this tab
# A B C D E F G H I J K L M N O P Q R S T U V W X Y Z