Song name
# A B C D E F G H I J K L M N O P Q R S T U V W X Y Z

Depresszio - Egymas Irant tab

Tuning: Drop C - C G C F A D
Ez az első tabom. Az egyedüli segitség hozzá a két fülem volt.
Intro:

1x
D|-------------------|-----------------|-------------------|-----------------|
A|-------------------|-----------------|-------------------|-----------------|
F|-------------------|-----------------|-------------------|-----------------|
C|-----9---12-----11-|-----5---7-----5-|-----9---12-----11-|-----4---5-----4-|
G|---9---9----9------|---5---5---5-----|---9---9----9------|---4---4---4-----|
C|-9------------9----|-5-----------5---|-9------------9----|-4-----------4---|



2x
D|-------------------|-----------------|-------------------|-----------------|
A|-------------------|-----------------|-------------------|-----------------|
F|-------------------|-----------------|-------------------|-----------------|
C|-----9---12-----11-|-----5---7-----5-|-----9---12-----11-|-----5---7-----5-|
G|---9---9----9------|---5---5---5-----|---9---9----9------|---5---5---5-----|
C|-9------------9----|-5-----------5---|-9------------9----|-5-----------5---|

D|-------------------|-----------------|-------------------|-----------------|
A|-------------------|-----------------|-------------------|-----------------|
F|-------------------|-----------------|-------------------|-----------------|
C|-----2---4-----2---|-----5---7-----5-|-----2---4-----2---|-----4---5-----4-|
G|---2---2---2-------|---5---5---5-----|---2---2---2-------|---4---4---4-----|
C|-2-----------2-----|-5-----------5---|-2-----------2-----|-4-----------4---|



Chorus:

D|-------------------|----------------------|
A|-------------------|----------------------|
F|-------------------|----------------------|
C|-9~-xx-2~--0~--2~--|-9~-0~-7~-xx-2~---2-2-|
G|-9~-xx-2~--0~--2~--|-9~-0~-7~-xx-2~---2-2-|
C|-9~-xx-2~--0~--2~--|-9~-0~-7~-xx-2~-x-2-2-|

D|-------------------------|-------------|
A|-------------------------|-------------|
F|-------------------------|-------------|
C|-9~-xx-2~--0~--2~-2222222-|-9~-0~-7~~~-|
G|-9~-xx-2~--0~--2~-2222222-|-9~-0~-7~~~-|
C|-9~-xx-2~--0~--2~-2222222-|-9~-0~-7~~~-|
                    ......


Solo:
Még sajnos nincs.. de már csinálom. Hamarosan fentlesz az is. max 2 nap.
Tap to rate this tab
 
# A B C D E F G H I J K L M N O P Q R S T U V W X Y Z