Song name
# A B C D E F G H I J K L M N O P Q R S T U V W X Y Z

Depresszio - Rajtad All tab

Depresszi - Rajtad ll
lemez: Egy leten t!
B-re hangolva

intro:
------1--------1------------|
----------------------------|
----------------------------|
----------------------------|
----------------------------|
000-----0-0---0--1-0-1-3----|

----------------------------|
----------------------------|
----------------------------|
222-3-22-2-3----------------|
222---22-2------------------|
000---00-0---1-0-1-3--------|

-------------------------------|
-------------------------------|
-------------------------------|
-222-3-2----222-3-2------------|
-------------------------------|
-------------------------------|

verse:
--------------------------------|
--------------------------------|
9---10--------------------------|
9---10--------------------------|
7---8---------------------------|
0---0---------------------------|

refrn:
---------------------------------|
---------------------------------|
5--7-----------------------------|     2x
5--7---222-3-2-2---2-3-----------|
3--5---222---2-2---2-------------|
-------000---0-0---0--1-0-1-3----|

--------------------------------|
--------------------------------|
5--7--5--7----------------------|
5--7--5--7----------------------|
3--5--3--5----------------------|
--------------------------------|

bridge:
----------------------------------------------------|
----------------------------------------------------|
----------------------------------------------------|
2----------2-2-2-3-22-----2-0--0-2-3----------------|
2----------2-2-2-3-22---------4---------------------|
0----------0-0-0-1-00-------------------------------|

kis szl:
----------12---17h18------------|
--5---6-------------------------|
--------------------------------|
--------------------------------|
--------------------------------|
--------------------------------|

szl alatt megy tovbb a bridge
Tap to rate this tab
# A B C D E F G H I J K L M N O P Q R S T U V W X Y Z