Song name
# A B C D E F G H I J K L M N O P Q R S T U V W X Y Z

Depresy - Try Not To Breath tab

Depresy - Try Not To Breathe
Tune down to C.
I didnt get some of the song (like rhythm under melody parts)

1.
|------------------------------------------------------|
|------------------------------------------------------|
|--------9ah~---------------------4-5~-------7------7--|
|------9------------9-10-9------5----------------------|
|-7-10---------7-10--------10-7---------9-10---9-10----|
|------------------------------------------------------|

|------------------------------------------------------|
|------------------------------------------------------|
|--------9ah~---------------------4-5~--7------7-------|
|------9------------9-10-9------5----------------------|
|-7-10---------7-10--------10-7-----------10-9---10-9--|
|------------------------------------------------------|

2.
|------------------------------------|
|---------------------------8-8-7----|
|---------------------------------7--|
|---------------------------5-5-4----|
|-5--3--2--2h3-3--5--3--2-3-------5--|
|------------------------------------|

3.
|-----------------------|
|-----------------------|
|-----------------------|
|------4"------2"----2"-|
|-2"--------5"----4"----|
|-----------------------|

4.
|------------------------------------------------------------|
|------------------------------------------------------------|
|-----------------------------------------------5------4ah~--|
|-2-2------2------2-----2-----2-3-3------3------5------------|
|-2-2------2------2-----2---3-2-3-3------3------3------------|
|-0-0--0-0-0--0-0-0--000--0---0-1-1--1-1-1--3-3----2222------|

5. (2 guitars)
|-gtr1-------------------|
|------------------------|
|-4"---5"---8"-7"-8"-7"--|
|-2"---3"---6"-5"-6"-5"--|
|------------------------|
|-gtr2-------------------|

5b. (2 guitars, same as 5)
|----------------------------|
|----------------------------|
|-4"-----4"----5"-----5"--8"-|
|-2"-----2"----3"-----3"--6"-|
|----------------------------|
|-----0------------0---------|

Solo - i was not anal about it, so 
I left some parts to the imagination 
|-----------------------------------------------------------------|
|-12tp0h5-13tp0h5-15tp0h5-13tp0h5-12tp0h5-13tp0h5-15tp0h5-13tp0h5-|
|-----------------------------------------------------------------|
|-----------------------------------------------------------------|
|-----------------------------------------------------------------|
|-----------------------------------------------------------------|

|-----------------------------------------------------------------|
|-12tp0h5-13tp0h5-15tp0h5-13tp0h5-12tp0h5-13tp0h5-15tp0h5-13tp0h5-|
|-----------------------------------------------------------------|
|-----------------------------------------------------------------|
|-----------------------------------------------------------------|
|-----------------------------------------------------------------|

|-----------------------------------------------------------------|
|-12tp0h5-13tp0h5-15tp0h5-13tp0h5-12tp0h5-13tp0h5-15tp0h5-13tp0h5-|
|-----------------------------------------------------------------|
|-----------------------------------------------------------------|
|-----------------------------------------------------------------|
|-----------------------------------------------------------------|

|-----------------------------------------------------------------|
|-12tp0h5-13tp0h5-15tp0h5-13tp0h5-12tp0h5-13tp0h5-12tp0h5---------|
|---------------------------------------------------------14bah~--|
|-----------------------------------------------------------------|
|-----------------------------------------------------------------|
|-----------------------------------------------------------------|

|-----------------------------------------------|
|-----------------------------------------------|
|-9~-9\7-7-7-7\5-5-5-5\4-4-0--------------------|
|-----------------------------3~----------------|
|--------------------------------0whammy shit---|
|-----------------------------------------------|

Not sure about the very fast arpeggio part thing
|---------------------------------------12-12------|
|--------------------------------------13-13-------|
|---do a run------------7/9-9-10-10~--12-12--10~---|
|-up the 5th position------------------------------|
|--------------------------------------------------|
|--------------------------------------------------|

|[12]-----------------------19tp15p12-20tp15p12----|
|----[12]----------------------do something like---|
|--------[12]--more whammy-----this a bunch of ----|
|----------------shit-------------times------------|
|--------------------------------------------------|
|--------------------------------------------------|

|--------------------------------------------------|
|--18b--run down the C#minor scale----------13ah~--|
|-------(would be A minor in E------10~------------|
|---------tuning)-----------------------12~--------|
|--------------------------------------------------|
|--------------------------------------------------|
Tap to rate this tab
 
# A B C D E F G H I J K L M N O P Q R S T U V W X Y Z