Song name
# A B C D E F G H I J K L M N O P Q R S T U V W X Y Z

Der W - Zwischen Traum Und Paralyse tab

Artist: Der W
Song: Zwischen Truam und Paralyse
Album: Schneller, Höher, Weidner

Intro + Verse part1:

e|-------------------------------------------------------------------------|
H|-------------------------------------------------------------------------|
G|------8---------5--------8---------5--------8---------5-----7-------7----|
D|----10-10------6-------10-10------6-------10-10------6-----8-8-----8-8---|
A|--10-----10---6------10-----10---6------10-----10---6-----8---8---8---8--|
E|8----------8-4-----8----------8-4-----8----------8-4-----6-----6-6-----6-|

Verse part2:

e|-------------------------------------------------------------------------|
H|-------------------------------------------------------------------------|
G|---5--------7---------12------------5-----5--------7------5--------5-----|
D|--6--6-6---8--8-----13--13--13-----6-6---6-6-6----8--8---6-6-6----6------|
A|-6----6---8-------13------13--13--6-----6---6-6--8------6---6-6--6-------|
E|4--------6------11---------------4-----4--------6------4--------4--------|

Refrain 1 und 2:

e|-------------------------------------------------------------------------|
H|-------------------------------------------------------------------------|
G|---7----------8------7--------5-----7----------8------5--------5---------|
D|--8-8-8-----10-10---8-8-8----6-6---8-8-8-----10-10---6-6-6----6----------|
A|-8---8-8--10-------8---8-8--6-----8---8-8--10-------6---6-6--6-----------|
E|6--------8--------6--------4-----6--------8--------4--------4------------|

Bridge:

e|-------------------------------------------------------------------------|
H|-------------------------------------------------------------------------|
G|-------------------------------------------------------------------------|
D|10-10-10-6-6-6-10-10-10-6-6-6-10-10-10-6-6-6-8-8-8-8-8-8-----------------|
A|10-10-10-6-6-6-10-10-10-6-6-6-10-10-10-6-6-6-8-8-8-8-8-8-----------------|
E|8--8--8--4-4-4-8--8--8--4-4-4-8--8--8--4-4-4-6-6-6-6-6-6-----------------|

Refrain 3:

e|-------------------------------------------------------------------------|
H|-------------------------------------------------------------------------|
G|-------------------------------------------------------------------------|
D|8-8-10-10101010-8-8-6-6666-8-10-10101010-6-6666-6-6666-------------------|
A|8-8-10-10101010-8-8-6-6666-8-10-10101010-6-6666-6-6666-------------------|
E|6-6--8-8--8-8-8-6-6-4-4444-6--8--8-8-8-8-4-4444-4-4444-------------------|
Tap to rate this tab
# A B C D E F G H I J K L M N O P Q R S T U V W X Y Z