Song name
# A B C D E F G H I J K L M N O P Q R S T U V W X Y Z

Der W - Mein Bester Feind tab

Artist: Der W
Song: Mein bester Feind
Album: schneller, Höher, Weidner

Intro:

e|-------------------------------------|
H|-------------------------------------|
G|-------------------------------------|
D|9-99-7-7-9-9-9-7-7-9-99-7-7-9-9-9-7-7|
A|9-99-7-7-9-9-9-7-7-9-99-7-7-9-9-9-7-7|
E|7-77-5-5-7-7-7-5-5-7-77-5-5-7-7-7-5-5|

Verse Guitar 1:

e|-------------------------------------|
H|-------------------------------------|
G|---9-----9-----5-----7---------------|
D|--9-9---9-9---5-5---7-7--------------|
A|7-----7-----3-----5------------------|
E|-------------------------------------|

Verse Guitar 2:

e|-------------------------------------|
H|-------------------------------------|
G|-------------------------------------|
D|-------------------------------------|
A|-------------------------------------|
E|00000000000000008888888877777777-----|

Refrain:

e|-------------------------------------|
H|-------------------------------------|
G|------555555------777777-------------|
D|222222555555555555777777-------------|
A|222222333333555555555555-------------|
E|000000------333333-------------------|

Bridge:
4x
e|-------------------------------------|
H|-------------------------------------|
G|---9-----------5-----7---------------|
D|--9-----------5-----7----------------|
A|7-----------3-----5------------------|
E|-------------------------------------|
2x
e|-------------------------------------|
H|-------------------------------------|
G|999999999999555555777777-------------|
D|999999999999555555777777-------------|
A|777777777777333333555555-------------|
E|-------------------------------------|


by #GuN_deR#

Intro
Verse (Guitar1 4x, Guitat2 2x when Guitar 1 has played 2x)
Refrain
Verse
Refrain
Bridge
Refrain
Tap to rate this tab
# A B C D E F G H I J K L M N O P Q R S T U V W X Y Z