Song name
# A B C D E F G H I J K L M N O P Q R S T U V W X Y Z

Der W - Stille Tage Im Klischee tab

Artist: Der W
Song: Stille Tage im Klische
Album:Schneller, Höher, Weidner

Intro:
e|--------------------------------------------------------------------------|
H|--------------------------------------------------------------------------|
G|--------------------------------------------------------------------------|
D|------------------5-5-5555------------------------------------------------|
A|2-2-2222-5---5555-3-3-3333-7---7777-2-2-2222-5---5555-2-2-2222------------|
E|0-0-0000-3---3333----------5---5555-0-0-0000-3---3333-0-0-0000------------|
Verse:
e|--------------------------------------------------------------------------|
H|--------------------------------------------------------------------------|
G|------ -----------5-5-5555------------------------------------------------|
D|2-2-2222-5---5555-5-5-5555-7---7777-2-2-2222-5---5555-2-2-2222------------|
A|2-2-2222-5---5555-3-3-3333-7---7777-2-2-2222-5---5555-2-2-2222------------|
E|0-0-0000-3---3333----------5---5555-0-0-0000-3---3333-0-0-0000------------|

Bridge:
e|--------------------------------------------------------------------------|
H|--------------------------------------------------------------------------|
G|--------------------------------------------------------------------------|
D|--------------------------------------------------------------------------|
A|--------------------------------------------------------------------------|
E|0-0-0-0-0-0-0-0-0-0-0-0-0-0-0-0-3-3-3-3-3-3-3-3-3-8-8-8-8-8-8-8-8-8-------|
Refrain:
e|--------------------------------------------------------------------------|
H|--------------------------------------------------------------------------|
G|------------------------5-5-5-5-5-5---------------------------------------|
D|2-2-2-2-2-2-5-5-5-5-5-5-5-5-5-5-5-5-7-7-7-7-7-7---------------------------|
A|2-2-2-2-2-2-5-5-5-5-5-5-3-3-3-3-3-3-7-7-7-7-7-7---------------------------|
E|0-0-0-0-0-0-3-3-3-3-3-3-------------5-5-5-5-5-5---------------------------|

e|--------------------------------------------------------------------------|
H|--------------------------------------------------------------------------|
G|--------------------5-5---------------------------------------------------|
D|2-2-----------------5-5--7-7-7-7-7----------------------------------------|
A|2-2-----------------3-3--7-7-7-7-7----------------------------------------|
E|0-0----------------------5-5-5-5-5----------------------------------------|

By #GuN_deR#

Tap to rate this tab
 
# A B C D E F G H I J K L M N O P Q R S T U V W X Y Z