Song name
# A B C D E F G H I J K L M N O P Q R S T U V W X Y Z

Der W - Zwischen Traum Und Paralyse tab

Der W - Zwischen Traum und Paralyse


Einstellungen an Gitarre:

Tone 1:      10

Tone 2:      10

Tonabnehmer: Bridge - Pickup


Einstellungen am Amp:

Channel: Clean

Gain:    10

Bass:     5

Middle:   7

Treble:   6


Intro:

e|---------------------------------------------------------------------------------------|
B|---------------------------------------------------------------------------------------|
G|----------8\7-------------3------------8\7-------------3------------8\7-------------3--|
D|-------10-----8-5-------6-----------10-----8-5-------6-----------10-----8-5-------6----|
A|----10----------------6----------10----------------6----------10----------------6------|
E|--8-----------------4----------8-----------------4----------8-----------------4--------|

e|--------------------------------|
B|--------------------------------|
G|--------5--------------5--------|
D|------8---8-8--------8---8-5----|
A|----8---------8----8---------8--|
E|--6--------------6--------------|

Verse:

e|---------------------------------------------------------------------------------------|
B|---------------------------------------------------------------------------------------|
G|----------8\7-------------3------------8\7-------------3------------8\7-------------3--|
D|-------10-----8-5-------6-----------10-----8-5-------6-----------10-----8-5-------6----|
A|----10----------------6----------10----------------6----------10----------------6------|
E|--8-----------------4----------8-----------------4----------8-----------------4--------|

e|--------------------------------|
B|--------------------------------|
G|--------5--------------5--------|
D|------8---8-8--------8---8-5----|
A|----8---------8----8---------8--|
E|--6--------------6--------------|


e|---------------------------------------------------------------------------------------|
B|---------------------------------------------------------------------------------------|
G|----------8\7-------------3------------8\7-------------3------------8\7-------------3--|
D|-------10-----8-5-------6-----------10-----8-5-------6-----------10-----8-5-------6----|
A|----10----------------6----------10----------------6----------10----------------6------|
E|--8-----------------4----------8-----------------4----------8-----------------4--------|

e|--------------------------------|
B|--------------------------------|
G|--------5--------------5--------|
D|------8---8-8--------8---8-5----|
A|----8---------8----8---------8--|
E|--6--------------6--------------|


Bridge:

e|----------------------------------------------------------------------|
B|----------------------------------------------------------------------|
G|--------5--------------7----------------8------------------8----------|
D|------6---6---6------8---8---8-------10---10----10------10---10----10-|
A|----6-------6------8-------8------10---------10------10---------10----|
E|--4--------------6--------------8------------------8------------------| 2X

Chorus:

e|-------------------------------------------------------------------|
B|-------------------------------------------------------------------|
G|--------7----------------8-----------------7--------------5--------|
D|------8---8---8-------10---10----10------8---8---8------6---6---6--|
A|----8-------8------10---------10-------8-------8------6-------6----|
E|--6--------------8-------------------6--------------4--------------| 2X

Interlude:

e|---------------------------------------------------------------------------------------|
B|---------------------------------------------------------------------------------------|
G|----------8\7-------------3------------8\7-------------3------------8\7-------------3--|
D|-------10-----8-5-------6-----------10-----8-5-------6-----------10-----8-5-------6----|
A|----10----------------6----------10----------------6----------10----------------6------|
E|--8-----------------4----------8-----------------4----------8-----------------4--------|

e|--------------------------------|
B|--------------------------------|
G|--------5--------------5--------|
D|------8---8-8--------8---8-5----|
A|----8---------8----8---------8--|
E|--6--------------6--------------|

Verse:

e|---------------------------------------------------------------------------------------|
B|---------------------------------------------------------------------------------------|
G|----------8\7-------------3------------8\7-------------3------------8\7-------------3--|
D|-------10-----8-5-------6-----------10-----8-5-------6-----------10-----8-5-------6----|
A|----10----------------6----------10----------------6----------10----------------6------|
E|--8-----------------4----------8-----------------4----------8-----------------4--------|

e|--------------------------------|
B|--------------------------------|
G|--------5--------------5--------|
D|------8---8-8--------8---8-5----|
A|----8---------8----8---------8--|
E|--6--------------6--------------|

Bridge:

e|----------------------------------------------------------------------|
B|----------------------------------------------------------------------|
G|--------5--------------7----------------8------------------8----------|
D|------6---6---6------8---8---8-------10---10----10------10---10----10-|
A|----6-------6------8-------8------10---------10------10---------10----|
E|--4--------------6--------------8------------------8------------------| 2X

Chorus:

e|-------------------------------------------------------------------|
B|-------------------------------------------------------------------|
G|--------7----------------8-----------------7--------------5--------|
D|------8---8---8-------10---10----10------8---8---8------6---6---6--|
A|----8-------8------10---------10-------8-------8------6-------6----|
E|--6--------------8-------------------6--------------4--------------| 2X

Verse 3:

e|-------------------------------------|
B|-------------------------------------|
G|----------8-----------------7--------|
D|-------10---10------------8----------|
A|----10---------10-------8------------|
E|--8-------------------6--------------| 3X

Chorus:

e|-------------------------------------------------------------------|
B|-------------------------------------------------------------------|
G|--------7----------------8-----------------7--------------5--------|
D|------8---8---8-------10---10----10------8---8---8------6---6---6--|
A|----8-------8------10---------10-------8-------8------6-------6----|
E|--6--------------8-------------------6--------------4--------------| 2X

Outro:

e|---------------------------------------------------------------------------------------|
B|---------------------------------------------------------------------------------------|
G|----------8\7-------------3------------8\7-------------3------------8\7-------------3--|
D|-------10-----8-5-------6-----------10-----8-5-------6-----------10-----8-5-------6----|
A|----10----------------6----------10----------------6----------10----------------6------|
E|--8-----------------4----------8-----------------4----------8-----------------4--------|

Ich habe mich an den vielen falschen Tabs fuer diesen Song gestoert und bin nun endlich 
gekommen, einen richtigen zu schreiben...Viel Spass beim Spielen!=)

Liebe Gruesse
Hose88
Tap to rate this tab
# A B C D E F G H I J K L M N O P Q R S T U V W X Y Z