Der W - Gewinnen Kann Jeder chords

Highlighted       Show chord diagrams
intro: 
c am c g

c                                    
GRÖßE ZEIGT SICH BEIM VERLIEREN
c                           am
SO WAS KANN JEDEM MAL PASSIER’N
               c                   g      
WIR SIND KEINE FREUNDE ABER FAIRE GEGNER

c
WIR ZEIGEN AUCH IM GRÖßTEN FRUST
c                           am 
UNSERE STOLZ GESCHWELLTE HELDEN BRUST
c                               g                           
UND TUN SO ALS WÄRE NICHTS GEWESEN

Zwischenspiel

e|-----------------------------------------------------------------|
B|-----------------------------------------------------------------|
G|-----------------------------------------------------------------|
D|-3-3-3-3-3-3-3-3-3-3-3-3-3-3-3-3--5-5-5-5-5-5-5-5-5-5-5-5-5-5-5--|
A|-3-3-3-3-3-3-3-3-3-3-3-3-3-3-3-3--5-5-5-5-5-5-5-5-5-5-5-5-5-5-5--|
E|-1-1-1-1-1-1-1-1-1-1-1-1-1-1-1-1--3-3-3-3-3-3-3-3-3-3-3-3-3-3-3--|

     WIR  WERDEN ES   ÜBERLEBEN.      GEH'N   JETZT  EINEN HEBEN 
                                 
am   g          f 
    UND MACHEN UNS AUF DIE REISE

UND SAGEN ZUM ABSCHIED LEISE - SCHEIßE
c                
  GEWINNEN KANN JEDER
                     am           
DAS WAR NUR EIN SCHÖNHEITSFEHLER
am
WIR KOMMEN WIEDER
f                     
UND DAS NÄCHSTE MAL - DAS NÄCHSTE MAL ALS SIEGER

Intro 
c am c g

c
WIR SINGEN AUCH BEI NIEDERLAGEN
c                           am 
DENN ES KOMMEN WIEDER BESSRE TAGE
         c             g
SIND SOWIESO MORALISCHE SIEGER

c
WIR ERTRINKEN UNSREN FRUST
c                         am
BEIM VERLIEREN UND BEI PUNKTVERLUST
       c             g
STEHEN AUF UND KOMMEN WIEDER


Zwischenspiel

e|-----------------------------------------------------------------|
B|-----------------------------------------------------------------|
G|-----------------------------------------------------------------|
D|-3-3-3-3-3-3-3-3-3-3-3-3-3-3-3-3--5-5-5-5-5-5-5-5-5-5-5-5-5-5-5--|
A|-3-3-3-3-3-3-3-3-3-3-3-3-3-3-3-3--5-5-5-5-5-5-5-5-5-5-5-5-5-5-5--|
E|-1-1-1-1-1-1-1-1-1-1-1-1-1-1-1-1--3-3-3-3-3-3-3-3-3-3-3-3-3-3-3--|

     WIR  WERDEN ES   ÜBERLEBEN.      GEH'N   JETZT  EINEN HEBEN 
                                 
am   g          f 
    UND MACHEN UNS AUF DIE REISE

UND SAGEN ZUM ABSCHIED LEISE - SCHEIßE
c                
  GEWINNEN KANN JEDER
                     am           
DAS WAR NUR EIN SCHÖNHEITSFEHLER
am
WIR KOMMEN WIEDER
f                     
UND DAS NÄCHSTE MAL - DAS NÄCHSTE MAL ALS SIEGER
Tap to rate this tab
 
# A B C D E F G H I J K L M N O P Q R S T U V W X Y Z