Song name
# A B C D E F G H I J K L M N O P Q R S T U V W X Y Z

Deradoorian - You Carry The Deed tab

-------------------------------------------------------------------------------
	            You Carry The Deed - Deradoorian
-------------------------------------------------------------------------------

 Tabbed by:dvanwyk
 Email:dustinvanwyk@yahoo.com

 Tuning:Standard

 Intro
e|-----7~------7~------7~------7~------5~------5~------7~------7~---|
B|----7-------7-------5-------5-------3-------3-------5-------5-----|
G|---7-------7-------5-------5-------4-------4-------5-------5------|
D|9~------9~------7~------7~------5~------5~------7~------7~--------|
A|------------------------------------------------------------------|
E|------------------------------------------------------------------|
 
 Verse
e|-----7~------7~------7~------7~------5~------5~------7~------7~---|
B|----7-------7-------5-------5-------3-------3-------5-------5-----|
G|---7-------7-------5-------5-------4-------4-------5-------5------|
D|9~------9~------7~------7~------5~------5~------7~------7~--------|
A|------------------------------------------------------------------|
E|------------------------------------------------------------------|

e|-----7~------7~------7~------7~------5~------5~------2~------2~---|
B|----7-------7-------5-------5-------3-------3-------1-------1-----|
G|---7-------7-------5-------5-------4-------4-------2-------2------|
D|9~------9~------7~------7~------5~------5~------------------------|
A|------------------------------------------------------------------|
E|------------------------------------------------2~------2~--------|

 Chorus x2
e|-----0~------0~------2~------2~------0~------0~------2~------2~---|
B|----1-------1-------1-------1-------1-------1-------1-------1-----|
G|---2-------2-------2-------2-------2-------2-------2-------2------|
D|------------------------------------------------------------------|
A|3~------3~------2~------2~------0~------0~------------------------|
E|------------------------------------------------2~------2~--------|

 Verse
e|-----7~------7~------7~------7~------5~------5~------5~------5~---|
B|----7-------7-------5-------5-------3-------3-------5-------5-----|
G|---7-------7-------5-------5-------4-------4-------5-------5------|
D|9~------9~------7~------7~------5~------5~------7~------7~--------|
A|------------------------------------------------------------------|
E|------------------------------------------------------------------|

e|-----7~------7~------7~------7~------5~------5~------2~------2~---|
B|----7-------7-------5-------5-------3-------3-------1-------1-----|
G|---7-------7-------5-------5-------4-------4-------2-------2------|
D|9~------9~------7~------7~------5~------5~------------------------|
A|------------------------------------------------------------------|
E|------------------------------------------------2~------2~--------|

 Chorus x4

http://www.myspace.com/angelderadoorian
Tap to rate this tab
 
# A B C D E F G H I J K L M N O P Q R S T U V W X Y Z