Guitaretab - guitar tabs
Song name
# A B C D E F G H I J K L M N O P Q R S T U V W X Y Z

Derek And The Dominoes - Layla tab

Hi everybody Shaun from England here, 
This is a tab of Layla by Derek and the Dominoes. 
I know for a fact it is 100% correct and it sounds faultless. 
I recommend playing it with as many hammer-ons and pull-offs 
as possible for that classic fast beat sound.
ENJOY!!!!

Tuning:E,A,D,G,B,E

h=Hammer on
p=Pull off
s=slide

Play this twice...
E]---------------------------------------[
B]---------------------------------------[
G]---------------------------------------[
D]-------0h3p0---0--7s5-3-----5-----7----[
A]---0h3-------3----5s3-1-0---3-0---5----[
E]--------------------------3-----3------[

...then do this twice...
E]-----------14----------16-14-13----------------14----------18-16-13------[
B]-----14h16----16p14-16----------14-16----14h16----16p14-16----------14-16[
G]--15----------------------------------15---------------------------------[
D]-------------------------------------------------------------------------[
A]-------------------------------------------------------------------------[
E]-------------------------------------------------------------------------[
[ Tab from: http://www.guitaretab.com/d/derek-and-the-dominoes/188339.html ]
...but on the second time substitute the last note (16) for a bent 14

----------------------------------------------------------------------------

Well that is all i can give you for tab i hope you enjoy i play it on my 
es359 style semi-acoustic and it sounds brill.
I'll leave you with the lyrics.
ENJOY AND KEEP ROCKING!!!!
p.s clapton IS god.


What'll you do when you get lonely
And nobody's waitin by your side
You've been runnin and hidin much too long
You know it's just your foolish pride

Layla, you got me on my knees
Layla, I'm beggin darlin, please
Layla, darlin, won't you ease my worried mind

Tried to give you consolation
When your old man had let you down
Like a fool, I fell in love with you
you turned my whole world upside down

Layla, you got me on my knees
Layla, I'm beggin darlin, please
Layla, darlin, won't you east my worried mind

Let's make the best of the situation
Before I finally go insane
Please don't say we'll never find a way
Don't tell me all my love's in vain

Layla, you got me on my knees
Layla, I'm beggin darlin, please
Layla, darlin, won't you east my worried mind

Related for Layla tab
Layla chords by Derek And The Dominoes