Song name
# A B C D E F G H I J K L M N O P Q R S T U V W X Y Z

Derek And The Dominos - Tell The Truth tab

-------------------------------------------------------------------------------
		                    TELL THE TRUTH Ė Derek and the Dominos
			                                 (Clapton/Whitlock)
-------------------------------------------------------------------------------


Tabbed by: varannion
Email: dm_hughes1@hotmail.com

Tuning: Standard
Slide guitar solos (not included here) in open E tuning (E B E Ab B E)


Intro
                                      Uh!     Choo!
                                           E7#9
e|-------------------------------|------------------------|
B|-------------------------------|---------8--------------|
G|-------------------------------|---------7--------------|
D|---------2--2-------2--2-------|---------6--------------|
A|----2h4--------4p2--------4p2--|---------7--------------|
E|-------------------------------|--0---------------------|

                                      Ow!
                                           G  Ab    A
e|-------------------------------|---------------|--------------------|
B|-------------------------------|---------------|--------------------|
G|-------------------------------|---------------|--------------------|
D|---------2--2-------2--2-------|---------------|--2----4----2----4--|
A|----2h4--------4p2--------4p2--|---------------|--0----0----0----0--|
E|-------------------------------|--0------3--4--|--------------------|

                                Tell me whoís   been fooliní you

e|----------------------|--------------------|--------------------|
B|----------------------|--------------------|--------------------|
G|----------------------|--------------------|--------------------|
D|----2----4----2----4--|--2----4----2----4--|--2----4----2----4--|
A|----0----0----0----0--|--0----0----0----0--|--0----0----0----0--|
E|----------------------|--------------------|--------------------|


      E7
e|----------------------|--------------------|--------------------|
B|----------------------|--------------------|--------------------|
G|----------------------|--------------------|--------------------|
D|----------------------|--------------------|--------------------|
A|----2----4----2----4--|--2----4----2----4--|--2----4----2----4--|
E|----0----0----0----0--|--0----0----0----0--|--0----0----0----0--|


           Tell the truth
                           A
e|----------------------|--------------------|--------------------|
B|----------------------|--------------------|--------------------|
G|----------------------|--------------------|--------------------|
D|----------------------|--2----4----2----4--|--2----4----2----4--|
A|----2----4----2----4--|--0----0----0----0--|--0----0----0----0--|
E|----0----0----0----0--|--------------------|--------------------|


                    Now whoís been fooliní you     hoo     hoo?
                                                B
e|----------------------|--------------------|--------------------|
B|----------------------|--------------------|--------------------|
G|----------------------|--------------------|--------------------|
D|----2----4----2----4--|--2----4----2----4--|--4----6----4----6--|
A|----0----0----0----0--|--0----0----0----0--|--2----2----2----2--|
E|----------------------|--------------------|--------------------|




e|----------------------|--------------------|--------------------|
B|----------------------|--------------------|--------------------|
G|----------------------|--------------------|--------------------|
D|----4----6----4----6--|--4----6----4----6--|--4----6----4----6--|
A|----2----2----2----2--|--2----2----2----2--|--2----2----2----2--|
E|----------------------|--------------------|--------------------|



Verse 1

A7                  E7
Yeah, you sit there lookiní so cool
          A7                            E7
While the whole show is passiní you by
A7                             E7                       G
Better come to terms with your fellow man soon, Ďcause
                       D
The whole world is shakiní now
            E       B  E  B  E  B  G
Can you feel it?
                   D
A new dawn is breakiní now
           B7
Can you see it?


Chorus

                A 
Tell the truth
                                 E7
Tell me whoís been fooliní you?
                A
Tell the truth
                             B7
Now whoís been fooliní who?


Verse 2

A7                     E7
It doesnít matter just who you are
   A7                          E7
Or where youíre goiní or been
A7                 E7                          G
Open your eyes and look into your heart, Lord
                       D
The whole world is shakiní now
              E       B  E  B  E  B  G
Canít you feel it?
                   D
A new dawn is breakiní now
           B7
Canít you see it?

I said see it, yeah

Canít you see it?

Canít you see it, yeah?

Canít you see it?

I can see it, yeah


C   C#          G#       A    Bb   B7
    Slide guitar solo


Chorus

                A 
Tell the truth
                                 E7
Tell me whoís been fooliní you?
                A
Tell the truth
                              B7
Now whoís been fooliní who?


Verse 3

A7                            E7
Hear what I say, Ďcause every word is true
    A7                                E7
You know I wouldnít tell you no lies
A7                   E7                  G
Your time is cominí, gonna be soon, boy
                       D
The whole world is shakiní now
              E       B  E  B  E  B  G
Canít you feel it?
                   D
A new dawn is breakiní now
             B7
Canít you see it?

I said see it, yeah

Canít you see it?

Canít you see it, yeah?

Canít you see it?

I said see it, yeah

Canít you see it?

I said see it, yeah

Canít you see it?

I said see it, yeah

Canít you see it?

I said see it, yeah


B7                 G
Slide guitar solo


Outro

                      D
The whole world is shakiní now
              E       B  E  B  E  B  G
Canít you feel it?
                   D
A new dawn is breakiní now
             B7
Canít you see it?

I said see it, yeah

Canít you see it?

Canít you see it, yeah?

Canít you see it?

Canít you see it, yeah

Canít you see it?

Canít you see it, yeah

Canít you see it?

Canít you see it, yeah

Canít you see it?

Canít you see it, yeah


B7
Slide guitar solo


G    D

E    B  E  B  E  B  G

D


      E                                                      bss
e|----0-----------------|------------------|------------------------0---|
B|----0-----------------|------------------|------------------------0---|
G|----1-----------------|------------------|------------------------1---|
D|----2--(2)------------|--2----------3/5--|--2--0----------------------|
A|----2ó-(2)------------|--2---------------|--------4--2--0-------------|
E|----0ó-(0)------------|--0---------------|-----------------3--0ó-(0)--|






======================================================================  03 April 2010

Tap to rate this tab
 
# A B C D E F G H I J K L M N O P Q R S T U V W X Y Z