Song name
# A B C D E F G H I J K L M N O P Q R S T U V W X Y Z

Derek And The Dominos - Layla tab

Here's the slide solo tab for Layla, I noticed it was nowhere on the internet.

(The entire solo uses a slide, so when it goes above 22 frets, it goes above the fretboard)

2:18
 E----/22---22----22-----22-/24--/25--\24--\22--(22)--22/20\22----/22--------|
 B-------22---22----22-------------------------------------------------------|
 G---------------------------------------------------------------------------|
 D---------------------------------------------------------------------------|
 A---------------------------------------------------------------------------|
 E---------------------------------------------------------------------------|

2:26
 E-\20-\17(15)---15/17\10~-----/22----22\20/22---22\20/22-/24---\22---------|
 B---------------------------------------------------------------------------|
 G---------------------------------------------------------------------------|
 D---------------------------------------------------------------------------|
 A---------------------------------------------------------------------------|
 E---------------------------------------------------------------------------|

2:31 2:35
 E--/29-(29)-\29--/29--/27\(25)/27/29-\----/22~--/24---24\22/24--/25---------|
 B---------------------------------------------------------------------------|
 G---------------------------------------------------------------------------|
 D---------------------------------------------------------------------------|
 A---------------------------------------------------------------------------|
 E---------------------------------------------------------------------------|

2:39 2:43
 E-24\----/22~~---25\24\20-/22\20/22----/22~--17/20\1515/17\(15)-/22--------|
 B---------------------------------------------------------------------------|
 G---------------------------------------------------------------------------|
 D---------------------------------------------------------------------------|
 A---------------------------------------------------------------------------|
 E---------------------------------------------------------------------------|

2:47 2:51
 E--22\20/22---22\20/22---22\20/22-/24-\22(22)----/22-/24-/25-24-22---------|
 B---------------------------------------------------------------------------|
 G---------------------------------------------------------------------------|
 D---------------------------------------------------------------------------|
 A---------------------------------------------------------------------------|
 E---------------------------------------------------------------------------|

2:55
 E-20/24\20/22------/22---22---22---22---22--/29~~-(29)-/29~~--(29)----------|
 B--------------------------22---22---22---22---22---------------------------|
 G---------------------------------------------------------------------------|
 D---------------------------------------------------------------------------|
 A---------------------------------------------------------------------------|
 E---------------------------------------------------------------------------|


3:01 3:04 3:06
 E-(29)--/31-\29--/---/22--\--/17---15---13---10\----------------------------|
 B----------------------------------------------------(10)\------------------|
 G---------------------------------------------------------------------------|
 D---------------------------------------------------------------------------|
 A---------------------------------------------------------------------------|
 E---------------------------------------------------------------------------|
Tap to rate this tab
# A B C D E F G H I J K L M N O P Q R S T U V W X Y Z