Song name
# A B C D E F G H I J K L M N O P Q R S T U V W X Y Z

Derek Trucks Band - All I Do tab

-----------------------------------------------------------------
		 derek trucks band - all i do
-----------------------------------------------------------------
Tabbed by:Gary Elechicon
Email:rephlica@yahoo.com

Tuning:standard

intro: Bb F

e|------------------------------------------------|
B|------------------------------------------------|
G|-------5-5h7--------10-10--7--10----------------|
D|-----7-------8~~~--------------------6h7-6h7----|
A|---8------------------------------8-------------|
E|------------------------------------------------|

e|------------------------------------------------|
B|------------------------------------------------|
G|-------5-5h7--------10p7---10-10----------------|
D|-----7-------8~~~---x---------------6h7-6h7-----|
A|---8----------------x-------------8-------------|
E|------------------------------------------------|

e|------------------------------------------------|
B|------------------------------------------------|
G|---12b(14)--10h12-10~~--------------------------|
D|-----------------------10h12-10h12p10~~~--------|
A|------------------------------------------------|
E|------------------------------------------------|

e|------------------------------------------------|
B|------------------------------------------------|
G|----------10--12b-12b~~~---12p10----------------|
D|---10/12-------------------------(12)-----------|
A|------------------------------------------------|
E|------------------------------------------------|

verse: Bb F

pre chorus: Eb Bb F

Chorus: Dm C Bb  last chorus part would be Dm Bb F


| /  slide up
| \  slide down
| h  hammer-on
| p  pull-off
| ~  vibrato
| +  harmonic
| x  Mute note
============================================================================
Tap to rate this tab
# A B C D E F G H I J K L M N O P Q R S T U V W X Y Z