Song name
# A B C D E F G H I J K L M N O P Q R S T U V W X Y Z

Derek Trucks Band - All I Do tab

E|----------------------1--1-----1--------------|---------------------1b-----|
B|--------1--1h3--1-----------3-----------------|-------1--1h3--1---------3--|
G#|----1-------------2-----------------0h1--0h1-|----1-------------2---------|
E|--1-------------------------------1-----------|-1--------------------------|
B|----------------------------------------------|----------------------------|
E|----------------------------------------------|----------------------------|


E|-----1--------------|-3br--1h3--1-------------|
B|--3-----------------|--------------1h3--1h3p1-|
G#|-------1--0h1--0h1-|-------------------------|
E|--------------------|-------------------------|
B|--------------------|-------------------------|
E|--------------------|-------------------------|

E|------1--3b--3b--r3p1--1-|
B|-1h3---------------------|
G#-------------------------|
E|-------------------------|
B|-------------------------|
E|-------------------------|
Tap to rate this tab
# A B C D E F G H I J K L M N O P Q R S T U V W X Y Z