Song name
# A B C D E F G H I J K L M N O P Q R S T U V W X Y Z

Derek Trucks Band - Get What You Deserve tab

Tabbed by:Jon
Email:jwfblues@yahoo.com

This is the main riff of the song- played after initial intro and between verses.  
Comments or questions welcome.

Tuning: open E- all notes played with slide (except open strums)

E|--------------------------------------------------0------------------------|
B|----------------3-----5----3~---------------------0------------------------|
G#|-----------/3-------------------3---\1-----------0------------------------|
E|------------------------------------------3-------0------------------------|
B|---------------------------------------------------------------------------|
E|---------------------------------------------------------------------------|

E|--------------------------------------------0--0---------------------------|
B|----------------3-----5----3~--\2--0--------0--0---------------------------|
G#|-----------/3------------------------------0--0---------------------------|
E|--------------------------------------------0--0---------------------------|
B|---------------------------------------------------------------------------|
E|---------------------------------------------------------------------------|
Tap to rate this tab
# A B C D E F G H I J K L M N O P Q R S T U V W X Y Z