Song name
# A B C D E F G H I J K L M N O P Q R S T U V W X Y Z

Derek Trucks Band - Out Of Madness tab

Tuning low to high: E, B, E, G#, B, E

E -------------------10p8----8p6---6p4---5p3------------------------|
B -----------------------10p8---8p6---6p4---6p3---------------------|
G#-----4--4-4-4/6\4-------------------------------------------------|
E ---5---5-5--------------------------------------------------------|
B -3----------------------------------------------------------------|
E ------------------------------------------------------------------|

E --------------------------------|---------------------------------|
B --------------------------------|---------------------------------|
G#-----4--4-4-4/6\4-2/4\2--2------|-----4-----4-4/6\4-2/4\2-2-------|
E ---5---5-5----------------5-5-3-|---5---3h5----------------5-5-3--|
B -3------------------------------|-3-------------------------------|
E --------------------------------|---------------------------------|

E --------------------------------|---------------------|---------------------|
B --------------------------------|---------------------|---------------------|
G#-----4--4-4-4/6\4-2/4\2--2------|---------------------|---------------------|
E ---5---5-5----------------5-5-3-|-2-2-2-2/4-5-5-5-5/7-|-2-2-2-2/4-5-5-5-5/7-|
B -3------------------------------|---------------------|---------------------|
E --------------------------------|---------------------|---------------------|

E -----------------------------|
B -7-7-7-7/9-10-10-10-10/12b14-|
G#-----------------------------|
E -----------------------------| solo over bassline in F#m, then go back into..
B -----------------------------|
E -----------------------------|

E -------------------10p8----8p6---6p4---5p3-------------------|
B -----------------------10p8---8p6---6p4---6p3----------------|
G#-----4--4-4-4/6\4--------------------------------------------|
E ---5---5-5---------------------------------------------------|
B -3-----------------------------------------------------------|
E -------------------------------------------------------------|


Bass solo, come back in with this over drums...

E ---------|
B ---------| several times
G#-----4---|
E ---5-----|
B -3-------|
E ---------|

Then the ending...

E -----------------------------------|---------------|
B -----------------------------------|---------------|
G#-----4--4-4-----4--4-4-4/6\4-2/4\2-|------4--------|
E ---5---5-5----5---5-5-5------------|----5----------|
B -3----------3----------------------|--3------------|
E -----------------------------------|---------------|

Tap to rate this tab
 
# A B C D E F G H I J K L M N O P Q R S T U V W X Y Z