Song name
# A B C D E F G H I J K L M N O P Q R S T U V W X Y Z

Derek Trucks Band - 6 Dance tab

Tuning low to high: E, B, E, G#, B, E

Intro
E -----------------------------------------------------------|
B -----------------------------------------------------------|
G#----------------------------------------4------------------|
E -5--3--2----5--3--2-2h3p2h3p2---5--3--2---2---5--3--2------|
B -----------------------------------------------------------|
E -----------------------------------------------------------|

E -----------------------------------------------------------|
B -----------------------------------------------------------|
G#-----4-3---------------------4h6-6b8r6-4-------------------| x4
E -5-------3-3---3-5----2-3-5-------------5------------------|
B -------------5------3--------------------------------------|
E -----------------------------------------------------------|

Solo over A, G, D x4, then F, E x2

Solo ending lick

E -10b12r10--8--5--------------------------------------------|
B -----------------8--5--------------------------------------|
G#------------------------6b8r6--4---------------------------|
E ---------------------------------5-------------------------|
B -----------------------------------------------------------|
E -----------------------------------------------------------|

E -----------------------------------------------------------|
B -----------------------------------------------------------|
G#-----4-3---------------------4h6-6b8r6-4-------------------| x2
E -5-------3-3---3-5----2-3-5-------------5------------------|
B -------------5------3--------------------------------------|
E -----------------------------------------------------------|

A, G, D x4, F, E x2 played under organ solo

Now break out your slide

E -----------------------------------------------------------|
B -----------------------------------------------------------|
G#------4\3--------------------------------------------------|
E -3/5-----3-3---3---3/5---2/3-3/5-5/8\\\\-------------------|
B -------------3---3-----3-----------------------------------|
E -----------------------------------------------------------|

E -----------------------------------------------------------|
B ---------------------------8/11----------------------------|
G# -----4\3--------------------------------------------------|
E -3/5-----3-3---3---3/5-5/8---------------------------------|
B -------------3---3-----------------------------------------|
E -----------------------------------------------------------|

Key change to C, guitar solo 8 measures, return to A for more soloing
and finish with this...

E -----------------------------------------------------------|
B -----------------------------------------------------------|
G#--------16\15----------------------------------------------|
E -15/17-------15-15----15----15/17---14/15/17-17/20\\\\-----|
B -------------------15----15-------15-----------------------|
E -----------------------------------------------------------|

E -----------------------------------------------------------|
B -----------------------------------------------------------|
G#--------16\15----------------------------------------------|
E -15/17-------15-15----15----15/17--------------------------|
B -------------------15----15--------------------------------|
E -----------------------------------------------------------|

Tap to rate this tab
# A B C D E F G H I J K L M N O P Q R S T U V W X Y Z