Song name
# A B C D E F G H I J K L M N O P Q R S T U V W X Y Z

Derek Trucks Band - Fourty-four tab

Help us improve GuitareTab! Take a short survey!
Tuning low to high: E, A, D, G, B, E

e----------------------------|
B----------------------------|
G----------------------------|
D----------------3-----------|
A--------3-5------5-3--------|
E---5-------------------5-1--|

e------------------------------|
B------------------------------|
G------------------------------|
D----------------3---------3---|
A--------3-5------5-3-5------1-|
E---5--------------------------|

e----------------------------|
B----------------------------|
G-------------3--------------|
D------3-5------5-3----------|
A---5-----------------5------|
E-------------------------1--|cycles to start again)
Related for Fourty-four tab