Song name
# A B C D E F G H I J K L M N O P Q R S T U V W X Y Z

Derek Trucks Band - Kickin Back tab

Tuning low to high: E, A, D, G, B, E

E -6-------------------------------|-6-------------------------------------|
B --6-6-9--------------------------|--6-6-9-----------4-6/8---8------------|
G#--------7--4h5p4------4--4-------|--------7-------4-------7---7--4/7\4---|
E -----------------6-4----4-4---4--|--------------4------------------------|
B ---------------------6-------6-6-|----------4h6--------------------------|
E ---------------------------------|---------------------------------------|

E -6-------------------------------|-6-------------------------------------|
B --6-6-9--------------------------|--6-6-9-----------4-6/8---8------------|
G#--------7--4h5p4------4--4-------|--------7-------4-------7---7--4/7\4---|
E -----------------6-4----4-4---4--|--------------4------------------------|
B ---------------------6-------6-6-|----------4h6--------------------------|
E ---------------------------------|---------------------------------------|

E -------------------------|-------------------|
B ---------7-7/9-7---------|---------5-5/7~~~--|
G#-------7---------7/9\7---|-------5-----------|
E -----6-----------------7-|-----4-------------|
B -6h7---------------------|-4/5---------------|
E -------------------------|-------------------|

E ---------------------|--------------------------------------|
B -----7/9\8-----------|-----7/9\8----------------------------|
G#---5-------7-5-7-5-7-|---5-------7-5-7-5-7/9-7/9------------|
E -6----------6---6----|-6----------6---6---------------------|
B ---------------------|--------------------------------------|
E ---------------------|--------------------------------------|

E ---------------------|------------------------------------|
B -----7/9\8-----------|-----7/9\8--------------------------|
G#---5-------7-5-7-5-7-|---5-------7-5-7-5-7/9-7/9----------|
E -6----------6---6----|-6----------6---6-------------------|
B ---------------------|------------------------------------|
E ---------------------|------------------------------------|

E -6----------------------------------|-6-------------------------------|
B ---6-6-9----------------------------|---6-6-9--------4-6/8--8---------|
G#---------7-4h5p4------4---4---------|---------7-----4------7--7--7----|
E -----------------6p4----4---4---4---|--------------4------------8-8---|
B ---------------------6--------6---6-|-----------4h6-------------------|
E ------------------------------------|---------------------------------|

Band falls into new groove, Derek/Jimmy Herring solos
After Yonrico does long drum fill, song goes back into original groove until end.
Tap to rate this tab
# A B C D E F G H I J K L M N O P Q R S T U V W X Y Z