Song name
# A B C D E F G H I J K L M N O P Q R S T U V W X Y Z

Derek Trucks Band - Bock To Bock tab

Tuning low to high: E, B, E, G#, B, E 

E  --12p9--------------------|------------------------------------| 
B  -------9----------------9-|--------------12--------------------| 
G# ---------8-10-8-10/12p8---|---8-10-10/12----12-10-8-------8-10-| 
E  --------------------------|-9-----------------------9-7-9------| 
B  --------------------------|------------------------------------| 
E  --------------------------|------------------------------------| 

E  --12p9-------------------|---------------------| 
B  -------9---------------9-|---------------------| 
G# ---------8-7---7h8p7-----|-----7h8-7-----------| 
E  -------------9-------9---|-8h9-------8-----8-9-| 
B  -------------------------|-------------8h9-----| 
E  -------------------------|---------------------| 

E  --12p9--------------------|------------------------------------| 
B  -------9----------------9-|--------------12--------------------| 
G# ---------8-10-8-10/12p8---|---8-10-10/12----12-10-8-------8-10-| 
E  --------------------------|-9-----------------------9-7-9------| 
B  --------------------------|------------------------------------| 
E  --------------------------|------------------------------------| 

E  --12p9-------------------|---------------------| 
B  -------9---------------9-|---------------------| 
G# ---------8-7---7h8p7-----|-----7h8-7-----------| 
E  -------------9-------9---|-8h9-------8-----8-9-| 
B  -------------------------|-------------8h9-----| 
E  -------------------------|---------------------| 

E  -----7-9-|------|-----7-9-|------|------9-11-|------| 
B  --9------|------|--9------|------|--11-------|------| 
G# ---------|-fill-|---------|-fill-|-----------|-fill-| 
E  -----7-9-|------|-----7-9-|------|------9-11-|------| 
B  --9------|------|--9------|------|--11-------|------| 
E  ---------|------|---------|------|-----------|------| 

E  ----------------10-9---------| 
B  ------7-8-10-12------10-12-9-| 
G# --7-8------------------------| 
E  -----------------------------| 
B  -----------------------------| 
E  -----------------------------| 

E  --12p9--------------------|------------------------------------| 
B  -------9----------------9-|--------------12--------------------| 
G# ---------8-10-8-10/12p8---|---8-10-10/12----12-10-8-------8-10-| 
E  --------------------------|-9-----------------------9-7-9-7--9-| 
B  --------------------------|------------------------------------| 
E  --------------------------|------------------------------------| 

E  --12p9----------------|--------------------------7-9/11\9--------------| 
B  -------9------------9-|----------------------7-9----------12-----------| 
G# ---------8-7-7h8p7----|----7h8-7---------7-8----------------10/12\-----| 
E  ----------9-------9---|-8h9------8----8-9--------------------------9-9-| 
B  ----------------------|-----------8h9----------------------------------| 
E  ----------------------|------------------------------------------------| 

Guitar solo fretted to begin with, then with slide, then flute solo 


E  --12p9--------------------|------------------------------------| 
B  -------9----------------9-|--------------12--------------------| 
G# ---------8-10-8-10/12p8---|---8-10-10/12----12-10-8-------8-10-| 
E  --------------------------|-9-----------------------9-7-9------| 
B  --------------------------|------------------------------------| 
E  --------------------------|------------------------------------| 

E  --12p9-------------------|---------------------| 
B  -------9---------------9-|---------------------| 
G# ---------8-7---7h8p7-----|-----7h8-7-----------| 
E  -------------9-------9---|-8h9-------8-----8-9-| 
B  -------------------------|-------------8h9-----| 
E  -------------------------|---------------------| 

E  --12p9--------------------|------------------------------------| 
B  -------9----------------9-|--------------12--------------------| 
G# ---------8-10-8-10/12p8---|---8-10-10/12----12-10-8-------8-10-| 
E  --------------------------|-9-----------------------9-7-9------| 
B  --------------------------|------------------------------------| 
E  --------------------------|------------------------------------| 

E  --12p9-------------------|---------------------| 
B  -------9---------------9-|---------------------| 
G# ---------8-7---7h8p7-----|-----7h8-7-----------| 
E  -------------9-------9---|-8h9-------8-----8-9-| 
B  -------------------------|-------------8h9-----| 
E  -------------------------|---------------------| 

E  -----7-9-|------|-----7-9-|------|------9-11-|------| 
B  --9------|------|--9------|------|--11-------|------| 
G# ---------|-fill-|---------|-fill-|-----------|-fill-| 
E  -----7-9-|------|-----7-9-|------|------9-11-|------| 
B  --9------|------|--9------|------|--11-------|------| 
E  ---------|------|---------|------|-----------|------| 

E  ----------------10-9---------| 
B  ------7-8-10-12------10-12-9-| 
G# --7-8------------------------| 
E  -----------------------------| 
B  -----------------------------| 
E  -----------------------------| 

E  --12p9--------------------|------------------------------------| 
B  -------9----------------9-|--------------12--------------------| 
G# ---------8-10-8-10/12p8---|---8-10-10/12----12-10-8-------8-10-| 
E  --------------------------|-9-----------------------9-7-9------| 
B  --------------------------|------------------------------------| 
E  --------------------------|------------------------------------| 

E  --12p9-------------------|---------------------| 
B  -------9---------------9-|---------------------| 
G# ---------8-7---7h8p7-----|-----7h8-7-----------| 
E  -------------9-------9---|-8h9-------8-----8-9-| 
B  -------------------------|-------------8h9-----| 
E  -------------------------|---------------------| 

E  ---------------------|---------------------| 
B  ---------------------|---------------------| 
G# -----7h8-7-----------|-----7h8-7-----------| 
E  -8h9-------8-----8-9-|-8h9-------8-----8-9-| 
B  -------------8h9-----|-------------8h9-----| 
E  ---------------------|---------------------|  
Tap to rate this tab
# A B C D E F G H I J K L M N O P Q R S T U V W X Y Z