Song name
# A B C D E F G H I J K L M N O P Q R S T U V W X Y Z

Derek Trucks Band - Baby Youre Right tab

Tuning low to high: E, B, E, G#, B, E

Verse chords

"If you think I love you..."
E ----------------|
B ----------------|
G#-10-10-11-10----|
E -10-10-10-10----|
B ----------------|
E ----------------|


Chord change to A

E -----------------|
B -----------------|
G#-5-5-6-5---------|
E -5-5-5-5---------|
B -----------------|
E -----------------|

"I wanna love you..."
E ------------------------|---------------------|
B ------------------------|-13/15-15\14\13\12---|
G#-8/10--8/10--8/10-8/10--|-13/15-15\14\13\12---| x5
E ------------------------|-13/15-15\14\13\12---|
B ------------------------|---------------------|
E ------------------------|---------------------|

"I wanna hug ya..."
E ------------------------|---------------------|-----------------|
B ------------------------|-13/15-15\14\13\12---|-8/10--3/5/10----|
G#-8/10--8/10--8/10-8/10--|-13/15-15\14\13\12---|-8/10--3/5/10----|
E ------------------------|-13/15-15\14\13\12---|-8/10--3/5/10----|
B ------------------------|---------------------|-----------------|
E ----------------------------------------------|-----------------|
Tap to rate this tab
 
# A B C D E F G H I J K L M N O P Q R S T U V W X Y Z