Song name
# A B C D E F G H I J K L M N O P Q R S T U V W X Y Z

Derek Trucks Band - Home In Your Heart tab

Tuning low to high: E, B, E, G#, B, E

With slide
E -5-3-5-5/7-3-3-----0-3-3/5-3/5\3-0-0-3/-|
B ---------------3/5----------------------|
G#----------------------------------------|
E ----------------------------------------|
B ----------------------------------------|
E ----------------------------------------|

E -15/-12\10----------------------------------|
B ----------12\10-----------------------------|
G#----------------10/12---11/13\11------------|
E ----------------------12---------12-12/15/--|
B --------------------------------------------|
E --------------------------------------------|

Without slide
E -------------------------------------|-----2-----------------------|
B -------------------------------------|---3---3h5p3-----------------|
G#-------11-11/13\11-------------------|-3-----------3-1-3-----------|
E -10-12-------------12-12/15-12-10/12-|-----------------------------|
B -------------------------------------|-----------------------------|
E -------------------------------------|-----------------------------|

E --------------------------------------------------------------------|
B --------------------------------------------------------------------|
G#--------------------------------------------------------------------|
E -----------------------3-4-5-3--------------------------3-4-5-3-----|
B -----0-3-4-5-3p0------5--------5------0-3-4-5-3p0------5--------5---|
E -0-0--------------5-5-------------0-0--------------5-5--------------|

E ----------------------------------------------------|
B ----------------------------------------------------|
G#----------------------------------------------------|
E -----------------------5-6-7-5---------3-4-5-3------|
B -----0-3-4-5-3p0------7--------7------5--------5----|
E -0-0--------------7-7-------------5-5---------------|

Repeat as needed
Tap to rate this tab
 
# A B C D E F G H I J K L M N O P Q R S T U V W X Y Z