Song name
# A B C D E F G H I J K L M N O P Q R S T U V W X Y Z

Derek Trucks Band - Angola tab

Help us improve GuitareTab! Take a short survey!
Tuning low to high: E, B, E, G#, B, E

Notes:
This is just the main portions of the song.
This is the tune that follows "Willisee" or basically
Rico and Kofi's drum/flute solos. I just started playing
this song the other day so I know it's probably not
100% correct but just play around with it for a little while.
It will probably take a few runs through to get it up to tempo.

E -------------------------------------------------------------------|
B --------------------------8 p 6------------------------------------|
G# -------4---5 p 4----7-----------7-----4----4----------------------|
E ---5-6------------------------------------6----5-6-5---------------|
B -------------------------------------------------------------------|
E -------------------------------------------------------------------|

E -------------------------------------------------------------------|
B --------------------------8 p 6------------------------------------|
G# -------4---5 p 4----7-----------7-----4----4----------------------|
E ---5-6------------------------------------6----5-6-5---------------|
B -------------------------------------------------------------------|
E -------------------------------------------------------------------|

E -------------------------------------------------------------------|
B -------------------------------------------------------------------|
G# --4---------------------------------------------------------------|
E ------6 p 4-------------4------4---6 p 4 --------------------------|
B -------------6 6--6 6-------6--------------6--4--6-----------------|
E -------------------------------------------------------------------|

E -------------------------------------------------------------------|
B --------------------------8 p 6------------------------------------|
G# -------4---5 p 4----7-----------7-----4----4----------------------|
E ---5-6------------------------------------6----5-6-5---------------|
B -------------------------------------------------------------------|
E -------------------------------------------------------------------|

E ---------------------------15 p 13---------------------------------|
B ----------13--14 p 13--16-----------16---13-----13-----------------|
G# --13-14-------------------------------------14-----13-14-13-------|
E -------------------------------------------------------------------|
B -------------------------------------------------------------------|
E -------------------------------------------------------------------|

E ---------------------------15 p 13---------------------------------|
B ----------13--14 p 13--16-----------16---13-----13-----------------|
G# --13-14-------------------------------------14-----13-14-13-------|
E -------------------------------------------------------------------|
B -------------------------------------------------------------------|
E -------------------------------------------------------------------|

E -------------------------------------------------------------------|
B ---13--------------------------------------------------------------|
G# ------14 p 12----------------12-----12--14 p 12-------------------|
E -----------------13 13-13 13------13--------------13--11 13--------|
B -------------------------------------------------------------------|
E -------------------------------------------------------------------|

E ---------------------------15 p 13---------------------------------|
B ----------13--14 p 13--16-----------16---13-----13-----------------|
G# --13-14-------------------------------------14-----13-14-13-------|
E -------------------------------------------------------------------|
B -------------------------------------------------------------------|
E -------------------------------------------------------------------|
Related for Angola tab