Song name
# A B C D E F G H I J K L M N O P Q R S T U V W X Y Z

Derek Trucks Band - Kam-ma-lay tab

Tuning low to high: E, B, E, G#, B, E


Intro and verse riffs
E -5-5--5--5-|-3-3/4\3--3-3-|-1-1/2\1--1-1-|-0-0--0-0-------------|
B -5-5--5--5-|-3-3/4\3--3-3-|-1-1/2\1--1-1-|-0-0--0-0-------------|
G#-4-4--4--4-|-3-3/4\3--3-3-|-1-1/2\1--1-1-|-0-0--0-0-------------|
E -5-5--5--5-|-3-3/4\3--3-3-|-1-1/2\1--1-1-|-0-0--0-0-------------|
B -----------|--------------|--------------|----------------------|
E -----------|--------------|--------------|----------------------|


E ---------------------------------------|------------------------------|
B ---------------------------------------|------------------------------|
G#-6/8~~-6\4\3~~-4/6\4\3-----------------|-6/8~~-6\4\3~~-4-6-6/8~/9\8---|
E -----------------------5~~-3/5\3-------|------------------------------|
B ---------------------------------5-5\--|------------------------------|
E ---------------------------------------|------------------------------|

E ---------------------------------------|-----------------------------------------------|
B ---------------------------------------|--------------------5-6-5h6p5\3/5--------------|
G#-6/8~~-6\4\3~~-4/6\4\3-----------------|-6/8~~-6\4\3~~---4h6--------------6b8r6p4h6-4--|
E -----------------------5~~-3/5\3-------|----------------5------------------------------|
B ---------------------------------5-5\--|-----------------------------------------------|
E ---------------------------------------|-----------------------------------------------|

E -5-5--5--5-|-3-3/4\3--3-3-|-1-1/2\1--1-1-|-0-0--0-0-------------|
B -5-5--5--5-|-3-3/4\3--3-3-|-1-1/2\1--1-1-|-0-0--0-0-------------|
G#-4-4--4--4-|-3-3/4\3--3-3-|-1-1/2\1--1-1-|-0-0--0-0-------------| x4
E -5-5--5--5-|-3-3/4\3--3-3-|-1-1/2\1--1-1-|-0-0--0-0-------------|
B -----------|--------------|--------------|----------------------|
E -----------|--------------|--------------|----------------------|

Then when the funky Spanish starts...

E -------5------------3------------1------------0-----------|
B -----5---5--------3---3--------1---1--------0---0---------|
G#---4-------4----3-------3----1-------1----0-------0-------| x4
E -3------------1------------1------------0-----------------|
B ----------------------------------------------------------|
E ----------------------------------------------------------|
I know you will think "That must be a mistake" on the way the arps are tabbed
but it's not. It's the way its played in the song.

E -5-5--5--5-|-3-3/4\3--3-3-|-1-1/2\1--1-1-|-0-0--0-0-------------|
B -5-5--5--5-|-3-3/4\3--3-3-|-1-1/2\1--1-1-|-0-0--0-0-------------|
G#-4-4--4--4-|-3-3/4\3--3-3-|-1-1/2\1--1-1-|-0-0--0-0-------------|
E -5-5--5--5-|-3-3/4\3--3-3-|-1-1/2\1--1-1-|-0-0--0-0-------------| x2
B -----------|--------------|--------------|----------------------|
E -----------|--------------|--------------|----------------------|

E ---------------------------------|-----------------------------------------------|
B ---------------------------------|-8/10~~~~\8\6-5/6\5-5--------------------------|
G#-4/6~~~~--4/6/8-6/8\6\4/6/8~~~~~-|---------------------6/8~~~-6\4-6/8-6/8\4-4/6--|
E ---------------------------------|-----------------------------------------------|
B ---------------------------------|-----------------------------------------------|
E ---------------------------------|-----------------------------------------------|

E ----------------------|
B ----------------------|
G#-4/6\4\3/4~~\3--------|
E ---------------5~~/7--|
B ----------------------|
E ----------------------| 
Tap to rate this tab
# A B C D E F G H I J K L M N O P Q R S T U V W X Y Z