Song name
# A B C D E F G H I J K L M N O P Q R S T U V W X Y Z

Derek Trucks Band - Volunteered Slavery tab

Help us improve GuitareTab! Take a short survey!
Tuning low to high: E, B, E, G#, B, E

Tambourine intro

E -11----------------11----------------------------------------------------|
B ---13----------------13--------------------------------------------------|
G#-----11/13-------------11/13--------------------------------12/14-11/13--|
E ----------13--11/13---------13--11/13--13-11---------11/13~~-------------|
B ------------13----------------13-------------13-11-13--------------------|
E -------------------------------------------------------------------------|

E ---------11-11/13--13-11----------------------|
B --9/11/13----------------11/13-11--9-9/11\9---|
G#-9------------------------------------------9-|
E ----------------------------------------------|
B ----------------------------------------------|
E ----------------------------------------------|

E -----------11-11/13--13-11----------------------|
B ----9/11/13----------------11/13-11--9-9/11\9---|
G#-9-9------------------------------------------9-|
E ------------------------------------------------|
B ------------------------------------------------|
E ------------------------------------------------|


E -11------------------11--------------------------------------------------|
B ---13------------------13------------------------------------------------|
G#-----11/13---------------11/13------------------------------12/14-11/13--|
E ----------13--11/13-----------13--11/13--13-11-------11/13~~-------------|
B ------------13------------------13-----------13-11-13--------------------|
E -------------------------------------------------------------------------|

Riff after verse

E ---------------------|
B ---------------------| Repeat as neccessary
G#-4/6-6--4------------|
E -4/6-6--4------------|
B ----------4/6~~~~~---|
E ---------------------|

by Daniel Anderson
Related for Volunteered Slavery tab