Song name
# A B C D E F G H I J K L M N O P Q R S T U V W X Y Z

Derek Webb - And See The Flaming Skies tab

Standard Tuning (eBGDAE)

CAPO 1

e|--2--2-2|--2--2-2|--0--0-0|--0--0-0|
B|--3--3-3|--3--3-3|--2--2-2|--2--2-2|
G|--------|--------|--------|--------|
D|0---0-0-|0---0-0-|--------|--------|
A|--------|--------|4---4-4-|4---4-4-|
E|--------|--------|--------|--------|

e|--4--4-4|--4--4-4|--5--5-5|--5--5-5|
B|--5--5-5|--5--5-5|--7--7-7|--7--7-7|
G|--------|--------|--------|--------|
D|2---2-2-|2---2-2-|4---4-4-|4---4-4-|
A|--------|--------|--------|--------|
E|--------|--------|--------|--------|

Repeats for the entire song.

This is my first tab! :) Enjoy.
Tap to rate this tab
# A B C D E F G H I J K L M N O P Q R S T U V W X Y Z