Song name
# A B C D E F G H I J K L M N O P Q R S T U V W X Y Z

Derek Webb - Blocks tab

Standard tuning
No Capo
I did the best I could, let's see how this goes...

INTRO
e|--0-0-|--0-0-|
B|------|------|
G|--1-1-|--1-1-| x8
D|-2-2-2|-2-2-2|
A|0-----|0-----|
E|------|------|

VERSES
e|--0-0-|--0-0-|--0-0-|--0-0-|--0-0-|--0-0-|--0-0-|--0-0-|
B|------|------|------|------|------|------|------|------|
G|--1-1-|--1-1-|--1-1-|--1-1-|--2-2-|--2-2-|--2-2-|--2-2-| x3
D|-2-2-2|-2-2-2|-2-2-2|-2-2-2|-4-4-4|-4-4-4|-4-4-4|-4-4-4|
A|0-----|0-----|0-----|0-----|------|------|------|------|
E|------|------|------|------|2-----|2-----|2-----|2-----|

e|--0-0-|--0-0-|--0-0-|--0-0-|--0-0-|--0-0-|--0-0-|--0-0-|
B|------|------|------|------|------|------|------|------|
G|--1-1-|--1-1-|--1-1-|--1-1-|--3-3-|--3-3-|--3-3-|--3-3-| x1
D|-2-2-2|-2-2-2|-2-2-2|-2-2-2|-4-4-4|-4-4-4|-4-4-4|-4-4-4|
A|0-----|0-----|0-----|0-----|------|------|------|------|
E|------|------|------|------|2-----|2-----|2-----|2-----|

CHORUS

I don't want the body...
e|--0-0-|--0-0-|--0-0-|--0-0-|--0-0-|--0-0-|--0-0-|--0-0-|
B|------|------|------|------|------|------|------|------|
G|--8-8-|--8-8-|--8-8-|--8-8-|--6-6-|--6-6-|--6-6-|--6-6-| x2
D|-9-9-9|-9-9-9|-9-9-9|-9-9-9|-7-7-7|-7-7-7|-7-7-7|-7-7-7|
A|------|------|------|------|------|------|------|------|
E|7-----|7-----|7-----|7-----|5-----|5-----|5-----|5-----|

And I just want love...
e|------|------|------|------|--0-0-|--0-0-|--0-0-|--0-0-|
B|2-----|2-----|2-----|------|-9-9-9|-9-9-9|-9-9-9|-9-9-9|
G|1-----|1-----|1-----|------|--8-8-|--8-8-|--8-8-|--8-8-|
D|2-----|2-----|2-----|------|-9-9-9|-9-9-9|-9-9-9|-9-9-9|
A|2-----|2-----|2-----|------|------|------|------|------|
E|0-----|0-----|0-----|------|7-----|7-----|7-----|7-----|

And I would do...
e|--0-0-|--0-0-|--0-0-|--0-0-|--0-0-|--0-0-|--0-0-|0-----|
B|-7-7-7|-7-7-7|-7-7-7|-7-7-7|-7-7-7|-7-7-7|-7-7-7|7-----|
G|--6-6-|--6-6-|--6-6-|--6-6-|--5-5-|--5-5-|--5-5-|5-----| x2
D|-7-7-7|-7-7-7|-7-7-7|-7-7-7|-7-7-7|-7-7-7|-7-7-7|7-----|
A|------|------|------|------|------|------|------|------|
E|5-----|5-----|5-----|5-----|5-----|5-----|5-----|5-----|

Repeat Intro, verse, chorus, end of chorus for bridge, then chorus twice.

That's it! Enjoy :)
Tap to rate this tab
# A B C D E F G H I J K L M N O P Q R S T U V W X Y Z