Song name
# A B C D E F G H I J K L M N O P Q R S T U V W X Y Z

Derkholm - Mountain King tab

          Band name:Derkholm
          Song name:Mountain King
          performed by Ben Koehler
          tabed by Ben Koehler:AMKII@att.net
          
           Part 1
             (clean) Repeat 1x
          e|------------------------------------------|         Note:Koehler uses Distortion Pedal
          B|------------------------------------------|         for Part 2 and thru out the rest of   
          G|------------------------------------------|         song.
          D|---44444444-4444-4444-44444444-4444-4444--|
          A|---22222222-2222-0000-22222222-2222-0000--|
          E|------------3333---------------3333-------|
          
           Part 2
             (Distorted)  Repeat 5x
          e|-----------------------------------------------------------------------------------|
          B|-----------------------------------------------------------------------------------|
          G|-----------------------------------------------------------------------------------|
          D|---44444444-4444-4444-444444-4444-4444-444444-4444-4444-44444444-4444-4444-404044--|
          A|---22222222-2222-0000-202022-2222-0000-202022-2222-0000-22222222-2222-0000-222222--|
          E|------------3333-------------3333-------------3333---------------3333--------------|
          
           Part 3
             (Solo)
          e|---99/10/-8-10-/13/--------7-/11/---------------------------------------------8-/12/--|
          B|---99/10/-8-10-------------7----/15/-----------------------------------------9--/12/--|
          G|----------------/15/-9-8-9-7----/15/-------------------------------------/12/---/12/--|
          D|-------------------------------------/15/16/--------------/12/---/12/12/--------------|
          A|-------------------------------------------/15/16/----/13/---/13/---------------------|
          E|--------------------------------------------------/15/--------------------------------|
          
            Part 4
               (Distorted)  repeat 4x
          e|--------------|                               
          B|--------------|    
          G|--------------|
          D|---444-44444--|
          A|---222-22222--|
          E|-----3-----3--|
Tap to rate this tab
# A B C D E F G H I J K L M N O P Q R S T U V W X Y Z