Guitaretab - guitar tabs
Song name
# A B C D E F G H I J K L M N O P Q R S T U V W X Y Z

Derogatory Remarks - Monster tab

Artist: Meg & Dia
Title: Monster
Tuning: Standard

Intro:
 Gtr.1 (dist. elec.)
|-------------------------------------------------------------|
|-------------------------------------------------------------|
|-14141414141414141414141414141414131313131313131399999999----|
|-x-x-x-x-x-x-x-x-x-x-x-x-x-x-x-x-x-x-x-x-x-x-x-x-xxxxxxxx-4~-| let last chord
|-12121212121212121212121212121212111111111111111177777777-4~-| ring through
|----------------------------------------------------------2~-| to verse

Verse 1:
Pt.1
 Gtr.2 (clean elec.)
|---4-----5---4-----4-----7---4-----|
|-----5-----5---5-----5-----5---5---|
|-------6---------------6-----------| [2x]
|-4---------------0---------------4-|
|-----------------------------------|
|-----------------------------------|
1. His little whispers. Love Me. Love Me.
2. That's all I ask for. Love Me. Love Me.

Pt.2
 Gtr.1 (dist. elec.)
|--------------------------------------|
|--------------------------------------|
|-------------------777----------------|
|-44444444-77777777-777-777-2-44xxxx44-|
|-44444444-77777777-555-777-2-44xxxx44-|
|-22222222-55555555-----555-0-22xxxx22-|
He battered his tiny fists to feel something.

|--------------------------------------|
|--------------------------------------|
|-------------------777-----4-4444444--|
|-44444444-77777777-777-777-4-4444444--|
|-44444444-77777777-555-777-2-2222222--|
|-22222222-55555555-----555------------|
                              *******
Wondered what it's like to touch and feel something.

Chorus 1:
Pt.1
 Gtr.2 (clean elec.)
|---5-----5-----5---5-----5-----5-----------------------------------|
|-----7-----7---------7-----7-------2-----2-----2---------0---------|
|-------6-----6---------6-----6-------2-----2-------1-------1---1---|
|-4---------------0---------------------2-----2-------2-------2-----|
|---------------------------------0---------------------2-----------|
|-------------------------------------------------0---------------0-|
                                                                  *
1. Monster. How should I feel? Creatures lie here. Looking through the window...

Pt.2
 Gtr.1 (dist. elec.)
|-------------------------------------------------------------|
|-------------------------------------------------------------|
|-14141414141414141414141414141414131313131313131399999999----|
|-x-x-x-x-x-x-x-x-x-x-x-x-x-x-x-x-x-x-x-x-x-x-x-x-xxxxxxxx-4~-| let last chord
|-12121212121212121212121212121212111111111111111177777777-4~-| ring through
|----------------------------------------------------------2~-| to verse

Verse 2:
Pt.1
 Gtr.2 (clean elec.)
|---4-----5---4-----4-----7---4-----|
|-----5-----5---5-----5-----5---5---|
|-------6---------------6-----------| [2x]
|-4---------------0---------------4-|
|-----------------------------------|
|-----------------------------------|
1. That night he caged her Bruised and broke her.
2. He struggled closer. Then he stole her.
[ Tab from: http://www.guitaretab.com/d/derogatory-remarks/133264.html ]
Pt.2
 Gtr.2 (dist. elec.)
|-------------------------------------------|
|-------------------------------------------|
|-------------------777---------------------|
|-44444444-77777777-777-777-22-44xxxx44xxxx-|
|-44444444-77777777-555-777-22-44xxxx44xxxx-|
|-22222222-55555555-----555-00-22xxxx22xxxx-|
Violet wrists and then her ankles. Silent Pain.

|--------------------------------|
|--------------------------------|
|-------------------777-----4~---|
|-44444444-77777777-777-777-4~---|
|-44444444-77777777-555-777-2~---|
|-22222222-55555555-----555------|
Then he slowly saw their nightmares were his dreams.

Chorus 2:
 Gtr.2 (dist. elec.)
|-------------------------------------|
|-------------------------------------|
|----------77777777-------------------| [2x]
|-44444444-77777777-77777777-22222222-|
|-44444444-55555555-77777777-22222222-|
|-22222222----------55555555-00000000-|
1. Monster. How should I feel? Creatures lie here. Looking through the windows.
2. I will. Hear their voices. I'm a glass child. I am Hannah's regrets.

Breakdown
 Gtr.2 (dist. elec.)                                        1stX2ndX
|-----------------------------------------------------------|--|---|
|-----------------------------------------------------------|--|---|
|-------------------------------777-7-7-7-7-76-777-7-7-7-7-7|9-|---| [2x]
|-444-4-4-4-4-42-444-4-4-4-4-47-777-7-7-7-7-76-777-7-7-7-7-7|9-|2~-| let ring through
|-444-4-4-4-4-42-444-4-4-4-4-47-555-5-5-5-5-54-555-5-5-5-5-5|7-|2~-| to next chorus
|-222-2-2-2-2-20-222-2-2-2-2-25-----------------------------|--|0~-|

Chorus 3:
Pt.1
 Gtr. 1 (dist. elec.)
|---5-----5-----5---5-----5----------------------|
|-----7-----7---------7-----7--------------------|
|-------6-----6---------6---------------99999999-|
|-4---------------0------------77777777-99999999-|
|------------------------------77777777-77777777-|
|------------------------------55555555----------|
Monster. How should I feel? Turn the sheets down. Murder ears with pillow lace.

Pt.2
|----------------------------------------------------------|
|----------------------------------------------------------|
|----------------------------------------------------------|
|-44/66/77/1111-1212121212121212-1111111111111111-99999999-|
|-xx-xx-xx-x-x--1212121212121212-x-x-x-x-x-x-x-x--xxxxxxxx-|
|-22/44/55/9-9--1010101010101010-9-9-9-9-9-9-9-9--77777777-|
There's bathtubs. Full of glow flies. Bathe in kerosene. Their words tattooed in his veins. Yeah.

Outro:
 Gtr.1 (dist. elec.)
|-------------------------------|
|-------------------------------|
|-------------------------------|
|-444-4-4-444-4-4-44-4-4-444-4~-|
|-444-4-4-444-4-4-44-4-4-444-4~-|
|-022-2-2-022-2-2-02-2-2-022-2~-|


Lyrics:
His little whispers.
Love Me. Love Me.
That's all I ask for.
Love Me. Love Me.
He battered his tiny fists to feel something.
Wondered what it's like to touch and feel something.

Monster.
How should I feel?
Creatures lie here.
Looking through the window...

That night he caged her
Bruised and broke her.
He struggled closer.
Then he stole her.

Violet wrists and then her ankles.
Silent Pain.
Then he slowly saw their nightmares were his dreams.

Monster.
How should I feel?
Creatures lie here.
Looking through the windows.
I will.
Hear their voices.
I'm a glass child.
I am Hannah's regrets.

Monster.
How should I feel?
Turn the sheets down.
Murder ears with pillow lace.
There's bathtubs.
Full of glow flies.
Bathe in kerosene.
Their words tattooed in his veins.
Related for Monster tab
Advertisement will be closed in 10 seconds