Song name
# A B C D E F G H I J K L M N O P Q R S T U V W X Y Z

Derozer - Tu Lo Sai tab

Help us improve GuitareTab! Take a short survey!
Coro
--------------------------------|
--------------------------------|
-------------9-9--11--9--12--11-|
-12--12--12--9-9--11--9--12--11-|     x3
-12--12--12--7-7--9---7--10--9--|
-10--10--10---------------------|

--------------------------------|
--------------------------------|
-------------9-9--11--12--11--9-|
-12--12--12--9-9--11--12--11--9-|
-12--12--12--7-7--9---10--9---7-|
-10--10--10---------------------|

Strofa
-------------------|
-------------------|
-------------------|
-12----7----9----5-|
-12----7----9----5-|
-10----5----7----3-|

Bridge
-------------|
-------------|
-------------|
-2----5----7-|
-2----5----7-|
-0----3----5-|

Coro   x3
Strofa x2
Coro   x2
Strofa x2
Bridge x2
Coro   x2
Related for Tu Lo Sai tab