Guitaretab - guitar tabs
Song name
# A B C D E F G H I J K L M N O P Q R S T U V W X Y Z
Home / D / Derozer / Sogno tab

Derozer - Sogno tab

e------------------------------------------------------------------------------|
B--0-------------5-4-2-0-5-4-2-4-----------------5-4-2-0-5-4-2-4---------------|
G-----7-9-7--7-5-------------------5--7-9-7-7-5--------------------------------|
D------------------------------------------------------------------------------|
A------------------------------------------------------------------------------|
E------------------------------------------------------------------------------|


e------------------------------------------------------------------------------|
B--------------------5-4-2-0-5-4-2-4-------------------7-5-4-5-4-2-0-----------|
G---7---9-10-9--9-7--------------------7---9-10-9--9-7---------------4-5-------|
D------------------------------------------------------------------------------|
A------------------------------------------------------------------------------|
E------------------------------------------------------------------------------|
[ Tab from: http://www.guitaretab.com/d/derozer/86681.html ]
e-------------------------------------------------------------------------------|
B-----------------------------------------55555555555555-7777777777777777-------|
D--55555555555555555--2222222222222222222-55555555555555-7777777777777777-------|X3
A--55555555555555555--2222222222222222222-33333333333333-5555555555555555-------|
E--33333333333333333--0000000000000000000---------------------------------------|


Immagina se puoooooooooi un mondo senza religione ecc..
e-------------------------------------------------------------------------------|
B-555555555555555-77777777777777777-----------------5555555555--777777777777777-|
D-555555555555555-77777777777777777-777777777777777-5555555555--777777777777777-|
A-333333333333333-55555555555555555-777777777777777-3333333333--555555555555555-|
E-----------------------------------555555555555555-----------------------------|


e------------------------------------------------------------------------------|
B-------55---77--7--7--7-7----------------------------------------------------|
D-22----55---77--7--7--7--7----------------------------------------------------|
A-22----33---55--5--5--5--5----------------------------------------------------|
E-00---------------------------------------------------------------------------|
Related for Sogno tab