Guitaretab - guitar tabs
Song name
# A B C D E F G H I J K L M N O P Q R S T U V W X Y Z
Home / D / Derozer / Bar tab

Derozer - Bar tab

Bar Derozer

Assolino iniziale:
---------------------------------------------------------|
---------------------------------------------------------|
--6-7-6-9-7-6-7--11-9-7-9-7-6-7-6-4-6-4-2-4-2------------|
7--------------------------------------------------------|
---------------------------------------------------------|
---------------------------------------------------------|

Strofa:
---------------------------|
---------------------------|
---------------------------|
7-----7-----7-----7--------|
7-----7-----7-----7--------|
5-----5-----5-----5--------|
[ Tab from: http://www.guitaretab.com/d/derozer/87432.html ]
Ritornello:
--------------------------------------------------|
--------------------------------------------------|
--7----7---7-7-4-4-7-7-2-2------7---9-------------|
7-7-7-7---7-7-4-4-7-7-2-2---7-7-7-9---------------|
7-5-7-5---5-5-2-2-5-5-4-4---7-5-7-7---------------|
5---5----------------------------5---5------------|
Assolo:

-----------------------------------------------------------------------------------|
-----------------------------------------------------------------------------------|
--6-7-6-9-7-6-7--11-9-7-9-7-6-7-6-4-6-4-2-4-2--9-9-9-7-6-7-6-7-6-9-9-9-11-14-11-9--|
7----------------------------------------------------------------------------------|
-----------------------------------------------------------------------------------|
-----------------------------------------------------------------------------------|

Mi sembra giusta,
per commenti suggerimenti o altro la mia e-mail  gaga-91@hotmail.it
Ciao!
Related for Bar tab