Guitaretab - guitar tabs
Song name
# A B C D E F G H I J K L M N O P Q R S T U V W X Y Z

Derozer - Cielo Nero tab

Cielo Nero Derozer

Assolino:
------------------------------------------------------------------------------------------|
9-7------9-7-----9-7---10--9-7---10--9-7------9-7----9-7----12-10-9-10-9-7-5--------------|
-----9-6-----9-6------9---------9-----------9-6-----9-6------6-----------------------8-6--|
------------------------------------------------------------------------------------------|
------------------------------------------------------------------------------------------|
------------------------------------------------------------------------------------------|
[ Tab from: http://www.guitaretab.com/d/derozer/87433.html ]
Ritornello
----------------------------------------------|
----------------------------------------------|
----------9-9-9-9-----------11-11-11-11-------|
6-6-6-6-9-9-9-9-9-9-9-9-11-11-11-11-----------|
6-6-6-6-7-7-7-7-9-9-9-9-9---9---9---9---------|
4-4-4-4-----------7-7-7-7---------------------|


Strofa:

-----------------------------------------|
-----------------------------------------|
----------9-9-9-9-----------8-8-8-8------|
6-6-6-6-9-9-9-9-9-9-9-9-8-8-8-8----------|
6-6-6-6-7-7-7-7-9-9-9-9-6-6-6-6----------|
4-4-4-4-----------7-7-7-7----------------|


Mi sembra giusta,
per commenti suggerimenti o altro la mia e-mail  gaga-91@hotmail.it
Ciao!
Related for Cielo Nero tab