Song name
# A B C D E F G H I J K L M N O P Q R S T U V W X Y Z

Des-row - Daikenkai tab

-------------------------------------------------------------------------------
			     Daikenkai (ver.2) - Des-Row
-------------------------------------------------------------------------------
Tabbed by:RyanBm9
Email:RyanBm9@hotmail.com

Tuning: Drop D

Intro: Play 2x

e|----12---------------12-----13------------------------------10----13----12-|
B|----12---------------10-----12------12----------10----12----10----13----12-|
G|-------------------------------------9----------10----12-------------------|
D|---------------------------------------------------------------------------|
A|---------------------------------------------------------------------------|
D|---------------------------------------------------------------------------|

Main Guitar: Plays Through Almost The Whole Song 
e|---------------------------------------------------------------------------|
B|---------------------------------------------------------------------------|
G|---------------------------------------------------------------------------|
D|----2------0x--0x--0x---3---0x--2---0x---3-2-0-3-2-0-3----2----------------|
A|----2------0x--0x--0x---3---0x--2---0x---3-2-0-3-2-0-3----2----------------|
D|----2------0x--0x--0x---3---0x--2---0x---3-2-0-3-2-0-3----2----------------|

e|---------------------------------------------------------------------------|
B|---------------------------------------------------------------------------|
G|---------------------------------------------------------------------------|
D|----2------0x--0x--0x---3---0x--2---0x---3-2-0-3-2-0-3-0--2----------------|
A|----2------0x--0x--0x---3---0x--2---0x---3-2-0-3-2-0-3-0--2----------------|
D|----2------0x--0x--0x---3---0x--2---0x---3-2-0-3-2-0-3-0--2----------------|

Rest:

e|---------------------------------------------------------------------------|
B|---------------------------------------------------------------------------|
G|---------0--2----0--2-----7---0-2-----0--2-----0--2------7--7--8------------|
D|----0--0--0--0--0--0--0--0--0-----0--0--0--0--0--0--0--0--0----------------|
A|---------------------------------------------------------------------------|
D|---------------------------------------------------------------------------|

e|---------------------------------------------------------------------------|
B|-----------------------------------------------3--4--1----------------------|
G|---------0--2----0--2-----7---0-2-----0--2-------------0--------------------|
D|----0--0--0--0--0--0--0--0--0-----0--0--0--0--0--0--0--0-------------------|
A|---------------------------------------------------------------------------|
D|---------------------------------------------------------------------------|

Back to the Main Guitar:

e|---------------------------------------------------------------------------|
B|---------------------------------------------------------------------------|
G|---------------------------------------------------------------------------|
D|----2------0x--0x--0x---3---0x--2---0x---3-2-0-3-2-0-3----2----------------|
A|----2------0x--0x--0x---3---0x--2---0x---3-2-0-3-2-0-3----2----------------|
D|----2------0x--0x--0x---3---0x--2---0x---3-2-0-3-2-0-3----2----------------|

e|---------------------------------------------------------------------------|
B|---------------------------------------------------------------------------|
G|---------------------------------------------------------------------------|
D|----2------0x--0x--0x---3---0x--2---0x---3-2-0-3-2-0-3-0--2----------------|
A|----2------0x--0x--0x---3---0x--2---0x---3-2-0-3-2-0-3-0--2----------------|
D|----2------0x--0x--0x---3---0x--2---0x---3-2-0-3-2-0-3-0--2----------------|

Ending:
e|---------------------------------------------------------------------------|
B|---------------------------------------------------------------------------|
G|---------------------------------------------------------------------------|
D|----7-----------3-----------0----------7---------3---------10--------------|
A|----7-----------3-----------0----------7---------3---------10--------------|
D|----7-----------3-----------0----------7---------3---------10--------------|


e|---------------------------------------------------------------------------|
B|---------------------------------------------------------------------------|
G|---------------------------------------------------------------------------|
D|----7-----------3-----------0----------7---8-7--8-7--8-7--8-7--8-----------|
A|----7-----------3-----------0----------7---8-7--8-7--8-7--8-7--8-----------|
D|----7-----------3-----------0----------7---8-7--8-7--8-7--8-7--8-----------|

e|---------------------------------------------------------------------------|
B|---------------------------------------------------------------------------|
G|---------------------------------------------------------------------------|
D|----7---8-7--8-7--8-7--8-7--8--7---8-7--8-7--8-7--8-7--8-------------------|
A|----7---8-7--8-7--8-7--8-7--8--7---8-7--8-7--8-7--8-7--8-------------------|
D|----7---8-7--8-7--8-7--8-7--8--7---8-7--8-7--8-7--8-7--8-------------------|

e|---------------------------------------------------------------------------|
B|---------------------------------------------------------------------------|
G|---------------------------------------------------------------------------|
D|----7---8-7--8-7--8-7--8-7--8--7x------------------------------------------|
A|----7---8-7--8-7--8-7--8-7--8--7x------------------------------------------|
D|----7---8-7--8-7--8-7--8-7--8--7x------------------------------------------|

| /  slide up
| \  slide down
| h  hammer-on
| p  pull-off
| ~  vibrato
| +  harmonic
| x  Mute note



===============================================================================
Tap to rate this tab
 
# A B C D E F G H I J K L M N O P Q R S T U V W X Y Z