Song name
# A B C D E F G H I J K L M N O P Q R S T U V W X Y Z

Desaparecidos - Man And Wife The Latter tab

Well, it's pretty good I guess. I finished the tab about an hour after hearing
the song for the firs time, so it's bound for an edit or two, but for the most
part it's correct. Thanks to the intro tab person for the intro (I copied and pasted that part).


Guitar 1 Verse

e]---------------------------------------------------------------------|
B]---------------------------------------------------------------------|
G]---------------------------------------------------------------------|
D]-13-13-13-13-13-13-13-13-14-14-14-14-13-13-13-13-11-11-11-11-9-9-9-9-|
A]-11-11-11-11-11-11-11-11-12-12-12-12-11-11-11-11--9--9--9--9-7-7-7-7-|
E]---------------------------------------------------------------------|

e]-----------------------------------------------------|
B]-----------------------------------------------------|
G]-----------------------------------------------------|
D]-8-8-8-8-6-6-6-6-4-4-4-4-2-2-2-2-9-9-9-9-11-11-11-11-|
A]-6-6-6-6-4-4-4-4-2-2-2-2-0-0-0-0-7-7-7-7-9--9--9--9--|
E]-----------------------------------------------------|

Guitar 2 intro:

e|-----------------------------------------------------------|
B|-----------------------------------------------------------|
G|-------------------------------------14-13---14-13----14-13|
D|----14-16-14-------14-16-14----14-16-----------------------|
A|-14----------14-14----------14-------------14------14------|
E|-----------------------------------------------------------|

Guitar 2 verse

D]-13-13-13--13-13-13--14-14-14--13-13-13--11-11-11--9-9-9-

D]-8-8-8--6-6-6--4-4-4--2-2-2--9-9-9--11-11-11-

Bridge:

e]-----------------------------|
B]-----------------------------|
G]-99999999--8/9--8/9--8/11-9--|
D]-99999999--8/9--8/9--8/11-9--|  [2x]
A]-77777777--6/8--6/8--6/8--7--|
E]-----------------------------|


Solo (I guess it's a solo I don't know what else to call it):

e]--    ---    -------------------------------------------------|
B]--    ---    -------------------------------------------------|
G]-6    -4-    -2-2-2-2---------2-2-2-2-2-2-2-2-4-4-4-4-4-4-4-4-|
D]-6 8x -4- 8x -2-2-2-2-5-5-5-5-2-2-2-2-2-2-2-2-4-4-4-4-4-4-4-4-|
A]-4    -2-    -0-0-0-0-5-5-5-5-0-0-0-0-0-0-0-0-2-2-2-2-2-2-2-2-|
E]--    ---    ---------3-3-3-3---------------------------------|

e]--------------------------------------------------|
B]--------------------------------------------9-----|
G]-9-9-9-9-9----9-9-10-9-5----6-6-6-6-6-----9---9---|
D]-9-9-9-9-9------------------6-6-6-6-6-------------|
A]-7-7-7-7-7------------------4-4-4-4-4-------------|
E]--------------------------------------------------|

e]--------------------------------------------------------------|
B]--------------------------------------------------------------|
G]-9-9-9-9-9----9-9-10-9-5----6-6-6-6-4-4-4-4-2-2-2-2-4-4-4-4-9-|
D]-9-9-9-9-9------------------6-6-6-6-4-4-4-4-2-2-2-2-4-4-4-4-9-|
A]-7-7-7-7-7------------------4-4-4-4-2-2-2-2-0-0-0-0-2-2-2-2-7-|
E]--------------------------------------------------------------|
Tap to rate this tab
 
# A B C D E F G H I J K L M N O P Q R S T U V W X Y Z