Song name
# A B C D E F G H I J K L M N O P Q R S T U V W X Y Z

Desaparecidos - Greater Omaha tab

Verse/Intro:
============

Guitar 1 - Clean
e----5---5---4---4---4------------------------------------------------|
b---------------------------------------------------------------------|
g---------------------------------------------------------------------|
d--2---2---2---2---2--------------------------------------------------|
a---------------------------------------------------------------------|
E---------------------------------------------------------------------|


Guitar 2 - Distortion
e---------------------------------------------------------------------|
b---------------------------------------------------------------------|
g--2--------7---------------------------------------------------------|
d--2--2--3--7---------------------------------------------------------|
a--0--2--3--5---------------------------------------------------------|
E--0--0--1--5---------------------------------------------------------|

Chorus:
=======

Guitar 1 - Distortion
e---------------------------------------------------------------------|
b---------------------------------------------------------------------|
g--66-7p6-6-9p6-6-7p6-6-9p6-7p6---------------------------------------|
d-------------------------------7-------------------------------------|
a---------------------------------------------------------------------|
E---------------------------------------------------------------------|


Guitar 2 - Distortion
e---------------------------------------------------------------------|
b---------------------------------------------------------------------|
g--2--6-----4---------------------------------------------------------|
d--2--6--4--4---------------------------------------------------------|
a--0--4--4--2---------------------------------------------------------|
E--0--4--2--2---------------------------------------------------------|

Bridge:
=======

FIGURE 1 x2
-----------
Guitar 1 - Sounds like a keyboard
e---------------------------------------------------------------------|
b--10-9---------------------------------------------------------------|
g-------9-7-----------------------------------------------------------|
d---------------------------------------------------------------------|
a---------------------------------------------------------------------|
E---------------------------------------------------------------------|

Guitar 2 - Distortion
e---------------------------------------------------------------------|
b---------------------------------------------------------------------|
g--7--9-----2---------------------------------------------------------|
d--7--9--4--2---------------------------------------------------------|
a--5--7--4--0---------------------------------------------------------|
E--5--0--2--0---------------------------------------------------------|


FIGURE 2 x4
-----------

Guitar 1 - Clean: Cut off after playing this whole progression x2.
On the last two notes let them ring out with some distortion on.
e-----------------------------------------------|----------------------|
b----------|-------|---------|------------------|----------------------|
g----------|-------|---------|------------------|----------------------|
d--7-6-4-2-|-764-2-|-7-6-4-2-|------------------|----------------------|
a----------|-------|---------|-54h0-54h0-54--|-2~-0~----------------|
E-----------------------------------------------|----------------------|

Guitar 2 - Clean: This part is played x4 twice with G1 and twice without
e---------------------------------------------------------------------|
b------5---------7------------10--------------12----------------------|
g----7--7------9--9-------13----13--------14----14--------------------|
d---7-7--7----9-9--9----11--11----11----14--14----14------------------|
a--5------5--7------7--9------------9--0------------0-----------------|
E---------------------------------------------------------------------|

FIGURE 3 x1
-----------

Guitar 1 - Keyboard Sounding thing
e---------------------------------------------------------------------|
b--10~-9~-10~---------------------------------------------------------|
g-------------9~------------------------------------------------------|
d---------------------------------------------------------------------|
a---------------------------------------------------------------------|
E---------------------------------------------------------------------|

Guitar 2 - Distortion: Listen for the strumming. Its chopped up.
e---------------------------------------------------------------------|
b---------------------------------------------------------------------|
g--2--------7---------------------------------------------------------|
d--2--2--3--7---------------------------------------------------------|
a--0--2--3--5---------------------------------------------------------|
E--0--0--1--5---------------------------------------------------------|

Chorus w/solo:
==============

Guitar 1
e--9-10-12--14-16-17-19-22-21-19-17-----------------------------------|
b---------------------------------------------------------------------|
g---------------------------------------------------------------------|
d---------------------------------------------------------------------|
a---------------------------------------------------------------------|
E---------------------------------------------------------------------|

Guitar 2 - Distortion
e---------------------------------------------------------------------|
b---------------------------------------------------------------------|
g--2--6-----4---------------------------------------------------------|
d--2--6--4--4---------------------------------------------------------|
a--0--4--4--2---------------------------------------------------------|
E--0--4--2--2---------------------------------------------------------|

End:
====

Guitar 2 - Distortion: End the song with this chord with the 
original verse rythm
e-----|
b-----|
g--2--|
d--2--|
a--0--|
E--0--|

Verse
Chorus
Verse
Chorus
Bridge
Chorus w/solo
End
Tap to rate this tab
 
# A B C D E F G H I J K L M N O P Q R S T U V W X Y Z