Guitaretab - guitar tabs
Song name
# A B C D E F G H I J K L M N O P Q R S T U V W X Y Z

Desaparecidos - Man And Wife The Latter Damaged Goods tab

This tab's pretty crappy, but it's the closest I could get. Mostly the bridge is a bit screwy.

Intro guitar I (clean, but sounds good with a tinnnyyyy amount of distortion)
e|------------------------------------------------------------|
B|------------------------------------------------------------|
G|------------------------------------------------------------|
D|------------------------------------------------------------|
A|-11----12----11-----9----7----7----6----4----2----7----9---|
E|-0------9-----9-----9----9----5----5----5----5----9----11---|
Normally I wouldn't leave it to you to figure out all the strumming, but it would be too 
to type out.

Intro guitar 2
e|----------------------------------------------------------------|
B|----------------------------------------------------------------|
G|-xxxx--------------xxxx-------------xxxx------------------------|
D|-xxxx-----9-11-9---xxxx-----9-11-9\-xxxx-----9-11-14-13^--------|
A|-xxxx-9-9--------9-xxxx-9-9---------xxxx-9-9--------------------|
E|----------------------------------------------------------------|

intro cont.
e|----------------------------------------------------------------|
B|----------------------------------------------------------------|
G|----------------------------------------------------------------|
D|-----14-13^-----14-13^------------------------------------------|
A|-9-9--------9-9-------------------------------------------------|
E|----------------------------------------------------------------|
 Don't bend tooo hard, just a little bit


Verse
The verse for guitar I is basically just the intro played over and over

Guitar 2
e|------------------------------------------------------------|
B|------------------------------------------------------------|
G|-1~~~~~~----1~~~~~------------------------------------------|
D|-2~~~~~~----2~~~~~------------------------------------------|
A|-2~~~~~~----2~~~~~------------------------------------------|
E|-0~~~~~~----0~~~~~------------------------------------------|

Just repeat it over and over with the correct timing.

Chorus
e|------------------------------------------------------------|
B|------------------------------------------------------------|
G|-1111111111111111--------------1111111111111111-------------|
D|-2222222222222222-8/9-8/9-8/11-2222222222222222-------------|
A|-2222222222222222-6/7-6/7-6/9--2222222222222222-------------|
E|-0000000000000000--------------0000000000000000-------------|
[ Tab from: http://www.guitaretab.com/d/desaparecidos/61565.html ]
e|------------------------------------------------------------|
B|------------------------------------------------------------|
G|-1111111111111111-------------------------------------------|
D|-2222222222222222-8/9-8/9-8/11\9~~~-------------------------|
A|-2222222222222222-6/7-6/7-6/9-\7~~~-------------------------|
E|-0000000000000000-------------------------------------------|

Verse

Chorus (slightly different from the first)
e|------------------------------------------------------------|
B|------------------------------------------------------------|
G|-1111111111111111--------------1111111111111111-------------|
D|-2222222222222222-8/9-8/9-8/11-2222222222222222-------------|
A|-2222222222222222-6/7-6/7-6/9--2222222222222222-------------|
E|-0000000000000000--------------0000000000000000-------------|

e|------------------------------------------------------------|
B|------------------------------------------------------------|
G|-1111111111111111-------------------------------------------|
D|-2222222222222222-8/9-8/9-8:--------------------------------|
A|-2222222222222222-6/7-6/7-6:--------------------------------|
E|-0000000000000000-------------------------------------------|
:= stop abruptly after hitting that note

Bridge pt. 1
Here's the screwy part, for the first part of the brige I just strum this one chord over 
over
e|---|
B|---|
G|-1-|
D|-2-|
A|-2-|
E|-0-|

Bridge pt. 2
e|--------------------------5^---5^-------xx------------------|
B|--------4-4h5p4p0-------4-4^-4-4^-------xx-4-4h5p4p0--------|
G|-11111------------11111-----------11111-xx------------------|
D|-22222------------22222-----------22222-xx------------------|
A|-22222------------22222-----------22222-xx------------------|
E|-00000------------00000-----------00000-xx------------------|

Bridge pt. 3
guitar 1
e|------------------------------------------------------------|
B|------------------------------------------------------------|
G|---------1~~~~~-------1~~~~~--------------------------------|
D|---------2~~~~~-------2~~~~~--------------------------------|
A|-7-6-4-2-2~~~~~-------2~~~~~--------------------------------|
E|-5-5-5-5-0~~~~~-------0~~~~~--------------------------------|

guitar 2 plays this in the backround until the end
E-------------------------------------------------------------|
B-------------------------------------------------------------|
G----------1--------------------------------------------------|
D--------2---2---2---2----------------------------------------|
A------4-----------0------------------------------------------|
E--------------4----------------------------------------------|

guitar 1 plays the intro riff

end on
e|---|
B|---|
G|-1-|
D|-2-|
A|-2-|
E|-0-|

If you guys have any corrections, particularly for the bridge, please let me know! :)
Related for Man And Wife The Latter Damaged Goods tab