Song name
# A B C D E F G H I J K L M N O P Q R S T U V W X Y Z

Desaster - Past Present Forever tab

#----------------------------------PLEASE NOTE---------------------------------#
#This file is the author's own work and represents their interpretation of the #
#song. You may only use this file for private study, scholarship, or research. #
#------------------------------------------------------------------------------#

PAST...PRESENT...FOREVER
As recorded by Desaster
(From the 1998 Album HELLFIRE'S DOMINION)

Transcribed by Historiae
	

Words by Okkulto Music by Desaster
Arranged by Desaster

D5
10 12 x x x x
	
A5
x 12 14 x x x
	
F5
x 8 10 x x x
	
G5
x 10 12 x x x

E5
x 7 9 x x x
	
C5
8 10 x x x x
	
C/E
x 7 10 x x x
	
Em
x 7 5 x x x

Eb
x 6 5 x x x
	
Eb5
x 6 8 x x x
	
Ab5/Eb
x 6 6 x x x
	
C5III
x 3 5 x x x

Cm
x 3 1 x x x
	
F5/C
x 3 3 x x x
	
B5
x 2 4 x x x
	
Db5
x 4 6 x x x

D5V
x 5 7 x x x
	
G5III
3 5 x x x x
	
A5V
5 7 x x x x
	
F
x 8 x 10 x x

E
x 7 x 9 x x
	
D
x 5 x 7 x x
	
Bb5
6 8 8 x x x

Gtr I (D G C F A D) - 'Okkulto'
Gtr II (D G C F A D) - 'Okkulto II'

 Intro
  Q=160
  N.C.
 4/4
  Gtr I
  TP   TP     TP TP TP TP   TP   TP     TP TP TP TP
  H    H      Q  Q  Q  Q    H    H      Q  Q  Q  Q
|-----------|-------------|-----------|-------------|
|-----------|-------------|-----------|-------------|
|-----------|-------------|-----------|-------------|
|------7----|-3--5--3--2--|------5----|-2--3--2-----|
|-5---------|-------------|-3---------|----------3--|
|-----------|-------------|-----------|-------------|


                                        C5
  TP   TP     TP TP TP TP   TP   TP      TP  TP TP TP
  H    H      Q  Q  Q  Q    H    H       Q   Q  Q  Q
|-----------|-------------|-----------|----------------|
|-----------|-------------|-----------|----------------|
|-----------|-------------|-----------|----------------|
|------7----|-3--5--3--2--|------5----|--2---3--2------|
|-5---------|-------------|-3---------|------------3---|
|-----------|-------------|-----------|----------------|
|
|                                       Gtr II
| W           W             W            W
|-----------|-------------|-----------|----------------|
|-----------|-------------|-----------|----------------|
|-----------|-------------|-----------|----------------|
|-----------|-------------|-----------|-10\------------|
|-----------|-------------|-----------|-10\------------|
|-----------|-------------|-----------|--8\------------|
                                         W


    N.C.
    Gtrs I, II
    TP   TP     TP TP TP TP   TP   TP     TP TP TP TP
    H    H      Q  Q  Q  Q    H    H      Q  Q  Q  Q
||------------|-------------|-----------|--------------||
||o-----------|-------------|-----------|-------------o||
||------------|-------------|-----------|--------------||
||-------7----|-3--5--3--2--|------5----|-2--3--2------||
||o-5---------|-------------|-3---------|----------3--o||
||------------|-------------|-----------|--------------||


    D5    A5      F5  G5  F5  E5   C5    G5      E5 F5  E5 C5
     TP    TP      TP  TP  TP TP    TP    TP     TP  TP TP  TP
     H     H       Q   Q   Q  Q     H     H      Q   Q  Q   Q
||--------------|----------------|-------------|----------------||
||o-------------|----------------|-------------|---------------o||
||--------------|----------------|-------------|----------------||
||--------14----|-10--12--10--9--|-------12----|-9--10--9-------||
||o-12----12----|--8--10---8--7--|-10----10----|-7---8--7--10--o||
||--10----------|----------------|--8----------|------------8---||


   Verse
    E5         C/E   E5 Em   Eb         Eb5  G5
    TP          TP   TP TP   TP         TP    TP
    W           H    Q  Q    W          H     H     4x
||-----------|-------------|----------|-------------||
||o----------|-------------|----------|------------o||
||-----------|-------------|----------|-------------||
||--9--------|-10----9--5--|-5--------|-8----10-----||
||o-7--------|--7----7--7--|-6--------|-6-----8----o||
||-----------|-------------|----------|-------------||


   Chorus
    Q=192
    Eb5                 Eb5      Ab5/Eb
       |-3-|    |-3-|      |-3-|    |-3-|
    Q  E E E Q  E E E   Q  E E E Q  E E E
||--------------------|-------------------|
||o-------------------|-------------------|
||--------------------|-------------------|
||--8--8-8-8-8--8-8-8-|-5--5-5-5-6--6-6-6-|
||o-6--6-6-6-6--6-6-6-|-6--6-6-6-6--6-6-6-|
||--------------------|-------------------|


  C5III               Cm       F5/C
     |-3-|    |-3-|      |-3-| |-3-|
  Q  E E E Q  E E E   Q  E E E Q Q Q   4x
|-------------------|------------------||
|-------------------|-----------------o||
|-------------------|------------------||
|-5--5-5-5-5--5-5-5-|-1--1-1-1-3-3-3---||
|-3--3-3-3-3--3-3-3-|-3--3-3-3-3-3-3--o||
|-------------------|------------------||


   Verse
    Q=160
    E5         C/E   E5 Em   Eb         Eb5  G5
    TP          TP   TP TP   TP         TP    TP
    W           H    Q  Q    W          H     H     4x
||-----------|-------------|----------|-------------||
||o----------|-------------|----------|------------o||
||-----------|-------------|----------|-------------||
||--9--------|-10----9--5--|-5--------|-8----10-----||
||o-7--------|--7----7--7--|-6--------|-6-----8----o||
||-----------|-------------|----------|-------------||


   Chorus
    Q=192
    Eb5                 Eb       Ab5/Eb
       |-3-|    |-3-|      |-3-|    |-3-|
    Q  E E E Q  E E E   Q  E E E Q  E E E
||--------------------|-------------------|
||o-------------------|-------------------|
||--------------------|-------------------|
||--8--8-8-8-8--8-8-8-|-5--5-5-5-6--6-6-6-|
||o-6--6-6-6-6--6-6-6-|-6--6-6-6-6--6-6-6-|
||--------------------|-------------------|


  C5III               Cm       F5/C
     |-3-|    |-3-|      |-3-| |-3-|
  Q  E E E Q  E E E   Q  E E E Q Q Q   4x
|-------------------|------------------||
|-------------------|-----------------o||
|-------------------|------------------||
|-5--5-5-5-5--5-5-5-|-1--1-1-1-3-3-3---||
|-3--3-3-3-3--3-3-3-|-3--3-3-3-3-3-3--o||
|-------------------|------------------||


 Out-Chorus
  Eb5        Eb   G#5/Eb C5III      Cm   F5/C
  TP         TP   TP     TP         TP   TP
  W          H    H      W          H    H
|----------|-----------|----------|-----------|
|----------|-----------|----------|-----------|
|----------|-----------|----------|-----------|
|-8--------|-5----6----|-5--------|-1----3----|
|-6--------|-6----6----|-3--------|-3----3----|
|----------|-----------|----------|-----------|


                                    Q=155
  Eb5        Eb   Ab5/Eb C5III      B5 Db5C5 Eb5
  TP         TP   TP     TP
  W          H    H      W          Q  Q  Q  Q
|----------|-----------|----------|--------------|
|----------|-----------|----------|--------------|
|----------|-----------|----------|--------------|
|-8--------|-5----6----|-5--------|-4--6--5--8---|
|-6--------|-6----6----|-3--------|-2--4--3--6---|
|----------|-----------|----------|--------------|


 Guitar Break
  D5N.C.
  Gtr I
    TPTP        TP          TP         TP
  E E H.        W           W          W
|-------------|----------|-----------|------|
|-------------|----------|-----------|------|
|-------------|----------|-----------|------|
|-7-----------|----------|-----------|------|
|-5-5-5-------|-5--------|-/8--------|-8----|
|-------------|----------|-----------|------|


  G5III
  Gtrs I, II
      |-3-|         |-3-|
  E E S S S S S E E S S S S S
|-----------------------------|
|-----------------------------|
|-----------------------------|
|-----------------------------|
|-5-5-5-5-5-5-5-5-5-5-5-5-5-5-|
|-3-3-3-3-3-3-3-3-3-3-3-3-3-3-|


                                A5V      N.C.  F     E
                                 TP       TP    TP   TP
      |-3-|         |-3-|
  E E S S S S S E E S S S S S    H.       Q     H    H
|-----------------------------|--------------|------------|
|-----------------------------|--------------|------------|
|-----------------------------|--------------|-10----9----|
|-----------------------------|--------------|------------|
|-5-5-5-5-5-5-5-5-5-5-5-5-5-5-|-/7-----------|--8----7----|
|-3-3-3-3-3-3-3-3-3-3-3-3-3-3-|-/5-------/8--|------------|


   Verse
    D                     F
    TP         TP           TP          TP
    W          W            W           W
||-----------|----------|------------|-------|
||o----------|----------|------------|-------|
||--7--------|-7--------|-/10--------|-10----|
||-----------|----------|------------|-------|
||o-5--------|-5--------|--/8--------|--8----|
||-----------|----------|------------|-------|


  G5III                 A5V      N.C.  F     E
  TP         TP          TP       TP    TP   TP
  W          W           H.       Q     H    H     3x
|----------|----------|--------------|-------------||
|----------|----------|--------------|------------o||
|----------|----------|--------------|-10----9-----||
|----------|----------|--------------|-------------||
|-5--------|-5--------|-/7-----------|--8----7----o||
|-3--------|-3--------|-/5-------/8--|-------------||


 Bridge
  Q.=120
  C5D5V            C5D5V            C5D5V            Eb5           D5VC5III
 6/8
  E E E E. S S S   E E E E. S S S   E E E E. S S S   Q  Q  Q    Q  Q  Q
|----------------|----------------|----------------|----------|----------|
|----------------|----------------|----------------|----------|----------|
|----------------|----------------|----------------|----------|----------|
|-5S7-7-7--7-7-7-|-5S7-7-7--7-7-7-|-5S7-7-7--7-7-7-|-8--8--8--|-8--7--5--|
|-3S5-5-5--5-5-5-|-3S5-5-5--5-5-5-|-3S5-5-5--5-5-5-|-6--6--6--|-6--5--3--|
|----------------|----------------|----------------|----------|----------|


 Guitar Break II
  Q=192
  E5                  C/E
 4/4
  Gtr I
     |-3-|    |-3-|         |--3--|    |-3-|
  Q  E E E Q  E E E    Q    E  E  E Q  E E E
|-------------------|------------------------|
|-------------------|------------------------|
|-------------------|------------------------|
|-9--9-9-9-9--9-9-9-|-10---10-10-10-9--9-9-9-|
|-7--7-7-7-7--7-7-7-|--7----7--7--7-7--7-7-7-|
|-------------------|------------------------|
|
| Gtr II
| W                   +W
|-------------------|------------------------|
|-------------------|------------------------|
|-------------------|------------------------|
|-9-----------------|-(9)--------------------|
|-7-----------------|-(7)--------------------|
|-------------------|------------------------|


  Eb                  Eb5        F5
     |-3-|    |-3-|        |-3-|      |--3--|
  Q  E E E Q  E E E    Q   E E E  Q   E  E  E
|-------------------|--------------------------|
|-------------------|--------------------------|
|-------------------|--------------------------|
|-5--5-5-5-5--5-5-5-|--8---8-8-8-10--10-10-10--|
|-6--6-6-6-6--6-6-6-|--6---6-6-6--8---8--8--8--|
|-------------------|--------------------------|
|
| W                   +W
|-------------------|--------------------------|
|-------------------|--------------------------|
|-------------------|--------------------------|
|-5-----------------|-(5)----------------------|
|-6-----------------|-(6)----------------------|
|-------------------|--------------------------|


  E5                  C/E
  Gtr I
     |-3-|    |-3-|         |--3--|    |-3-|
  Q  E E E Q  E E E    Q    E  E  E Q  E E E
|-------------------|------------------------|
|-------------------|------------------------|
|-------------------|------------------------|
|-9--9-9-9-9--9-9-9-|-10---10-10-10-9--9-9-9-|
|-7--7-7-7-7--7-7-7-|--7----7--7--7-7--7-7-7-|
|-------------------|------------------------|
|
| Gtr II
| W                   +W
|-------------------|------------------------|
|-------------------|------------------------|
|-------------------|------------------------|
|-9-----------------|-(9)--------------------|
|-7-----------------|-(7)--------------------|
|-------------------|------------------------|


  Eb                  Eb5   F5
     |-3-|    |-3-|   |-3-|  |--3--|
  Q  E E E Q  E E E   Q Q Q  Q  Q  Q
|-------------------|-----------------|
|-------------------|-----------------|
|-------------------|-----------------|
|-5--5-5-5-5--5-5-5-|-8-8-8-10-10-10--|
|-6--6-6-6-6--6-6-6-|-6-6-6--8--8--8--|
|-------------------|-----------------|
|
|                     |-3-|  |--3--|
| W                   Q Q Q  Q  Q  Q
|-------------------|-----------------|
|-------------------|-----------------|
|-------------------|-----------------|
|-5-----------------|-8-8-8-10-10-10--|
|-6-----------------|-6-6-6--8--8--8--|
|-------------------|-----------------|


   Verse
    E5                  C/E
    Gtrs I, II
       |-3-|    |-3-|        |--3--|    |-3-|
    Q  E E E Q  E E E    Q   E  E  E Q  E E E
||--------------------|-----------------------|
||o-------------------|-----------------------|
||--------------------|-----------------------|
||--9--9-9-9-9--9-9-9-|-10--10-10-10-9--9-9-9-|
||o-7--7-7-7-7--7-7-7-|--7---7--7--7-7--7-7-7-|
||--------------------|-----------------------|


  Eb                  Eb5      F5
     |-3-|    |-3-|      |-3-|      |--3--|
  Q  E E E Q  E E E   Q  E E E  Q   E  E  E
|-------------------|--------------------------||
|-------------------|-------------------------o||
|-------------------|--------------------------||
|-5--5-5-5-5--5-5-5-|-8--8-8-8-10--10-10-10----||
|-6--6-6-6-6--6-6-6-|-6--6-6-6--8---8--8--8---o||
|-------------------|--------------------------||


   Chorus
    Eb5                 Eb       Ab5/Eb
       |-3-|    |-3-|      |-3-|    |-3-|
    Q  E E E Q  E E E   Q  E E E Q  E E E
||--------------------|-------------------|
||o-------------------|-------------------|
||--------------------|-------------------|
||--8--8-8-8-8--8-8-8-|-5--5-5-5-6--6-6-6-|
||o-6--6-6-6-6--6-6-6-|-6--6-6-6-6--6-6-6-|
||--------------------|-------------------|


  C5III               Cm       F5/C
     |-3-|    |-3-|      |-3-| |-3-|
  Q  E E E Q  E E E   Q  E E E Q Q Q   4x
|-------------------|------------------||
|-------------------|-----------------o||
|-------------------|------------------||
|-5--5-5-5-5--5-5-5-|-1--1-1-1-3-3-3---||
|-3--3-3-3-3--3-3-3-|-3--3-3-3-3-3-3--o||
|-------------------|------------------||


 Out-Chorus
  Eb5        Eb   Ab5/Eb C5III      Cm   F5/C
  TP         TP   TP     TP         TP   TP
  W          H    H      W          H    H
|----------|-----------|----------|-----------|
|----------|-----------|----------|-----------|
|----------|-----------|----------|-----------|
|-8--------|-5----6----|-5--------|-1----3----|
|-6--------|-6----6----|-3--------|-3----3----|
|----------|-----------|----------|-----------|


                                    Q=155
  Eb5        Eb   Ab5/Eb C5III      B5 Db5C5 Eb5
  TP         TP   TP     TP
  W          H    H      W          Q  Q  Q  Q
|----------|-----------|----------|--------------|
|----------|-----------|----------|--------------|
|----------|-----------|----------|--------------|
|-8--------|-5----6----|-5--------|-4--6--5--8---|
|-6--------|-6----6----|-3--------|-2--4--3--6---|
|----------|-----------|----------|--------------|


 Guitar Break III
  D5N.C.
  Gtr I
    TPTP        TP          TP         TP
  E E H.        W           W          W
|-------------|----------|-----------|------|
|-------------|----------|-----------|------|
|-------------|----------|-----------|------|
|-7-----------|----------|-----------|------|
|-5-5-5-------|-5--------|-/8--------|-8----|
|-------------|----------|-----------|------|


  G5III                 A5V      N.C.  F     E
  Gtrs I, II
  TP         TP          TP       TP    TP   TP
  W          W           H.       Q     H    H
|----------|----------|--------------|------------|
|----------|----------|--------------|------------|
|----------|----------|--------------|-10----9----|
|----------|----------|--------------|------------|
|-5--------|-5--------|-/7-----------|--8----7----|
|-3--------|-3--------|-/5-------/8--|------------|


   Verse
    D                     F
    TP         TP           TP          TP
    W          W            W           W
||-----------|----------|------------|-------|
||o----------|----------|------------|-------|
||--7--------|-7--------|-/10--------|-10----|
||-----------|----------|------------|-------|
||o-5--------|-5--------|--/8--------|--8----|
||-----------|----------|------------|-------|


  G5III                 A5V      N.C.  F     E
  TP         TP          TP       TP    TP   TP
  W          W           H.       Q     H    H     3x
|----------|----------|--------------|-------------||
|----------|----------|--------------|------------o||
|----------|----------|--------------|-10----9-----||
|----------|----------|--------------|-------------||
|-5--------|-5--------|-/7-----------|--8----7----o||
|-3--------|-3--------|-/5-------/8--|-------------||


 Outro
  Q.=120
  C5D5V            C5D5V            C5D5V            Eb5           D5VC5III
 6/8
  E E E E. S S S   E E E E. S S S   E E E E. S S S   Q  Q  Q    Q  Q  Q
|----------------|----------------|----------------|----------|----------|
|----------------|----------------|----------------|----------|----------|
|----------------|----------------|----------------|----------|----------|
|-5S7-7-7--7-7-7-|-5S7-7-7--7-7-7-|-5S7-7-7--7-7-7-|-8--8--8--|-8--7--5--|
|-3S5-5-5--5-5-5-|-3S5-5-5--5-5-5-|-3S5-5-5--5-5-5-|-6--6--6--|-6--5--3--|
|----------------|----------------|----------------|----------|----------|


  D5                                     C5 Bb5 A5
   H.         +H.         E.  S  S  S  E  E E   h.
|----------|-----------|----------------------|-------*|
|----------|-----------|----------------------|-------*|
|----------|-----------|----------------------|-------*|
|-12-------|-(12)------|-12--12-12-12-12-10-8-|-7-----*|
|-12-------|-(12)------|-12--12-12-12-12-10-8-|-7-----*|
|-10-------|-(10)------|-10--10-10-10-10--8-6-|-5-----*|



Duration Legend
---------------
W - whole; H - half; Q - quarter; E - 8th; S - 16th; T - 32nd; X - 64th; a - acciaccatura
+ - note tied to previous; . - note dotted; .. - note double dotted
Uncapitalized letters represent notes that are staccato (1/2 duration)
Irregular groupings are notated above the duration line
Duration letters will always appear directly above the note/fret number it represents the
duration for.  Duration letters with no fret number below them represent rests.  Multi-
bar rests are notated in the form Wxn, where n is the number of bars to rest for.  Low
melody durations appear below the staff

Tablature Legend
----------------
 h   - hammer-on
 p   - pull-off
 b   - bend
 pb  - pre-bend
 r   - bend release (if no number after the r, then release immediately)
 /\  - slide into or out of (from/to "nowhere")
 s   - legato slide
 S   - shift slide
 - natural harmonic
[n]  - artificial harmonic
n(n) - tapped harmonic
 ~   - vibrato
 tr  - trill
 T   - tap
 TP  - trem. picking
 PM  - palm muting
\n/  - tremolo bar dip; n = amount to dip
 \n  - tremolo bar down
 n/  - tremolo bar up
/n\  - tremolo bar inverted dip
 =   - hold bend; also acts as connecting device for hammers/pulls
 <> - volume swell (louder/softer)
 x   - on rhythm slash represents muted slash
 o   - on rhythm slash represents single note slash

Misc Legend
-----------
 |  - bar
||  - double bar
||o - repeat start
o|| - repeat end
*|  - double bar (ending)
 :  - bar (freetime)
 $  - Segno
 &  - Coda
Tempo markers -  = BPM(8/16=s8/s16), where s8 = swing 8ths, s16 = swing 16ths

Tap to rate this tab
# A B C D E F G H I J K L M N O P Q R S T U V W X Y Z