Song name
# A B C D E F G H I J K L M N O P Q R S T U V W X Y Z

Descant Gott - Justice Denied tab

DESCANT GOTT
Justice Denied

tuning: D standard

Intro:
|------------------------------------------------------------------|
|------------------------------------------------------------------|
|------------------------------------------------------------------|
|-----5-5-5-4------4-4-4-2------5-5-5-4---2---1-----1----2----4----| 1st gtr
|-----7-7-7-5------5-5-5-3------7-7-7-5---3---2--22---22---22------|
|--0-------------0------------0---------0---0----------------------|
   .             .            .         .   .    ..   ..   ..

|-----------------------------------------------------------------------------------|
|-----------------------------------------------------------------------------------|
|----12-12-12-11------11-11-11-9------12-12-12--11---9---8-------8----9----11-------|
|-----------------------------------------------------------------------------------| 
|----10-10-10--9-------9--9--9-7------10-10-10---9---7---6-------6----7-----9-------|
|--0----------------0---------------0--------------0---0------00---00---00----------|
gtr
   .                .               .              .   .      ..   ..   ..


Main Riff/Verse:
|---------------------------------------------------------|
|---------------------------------------------------------|
|---------------------------------------------------------|
|----5-5-5-4----------4-4-4-2-----------and so on...------| 1st gtr
|----7-7-7-5----------5-5-5-3-----------------------------|
|--0---------00000000---------00000000--------------------|
   .         ........         ........

|--------------------------------------------------------------|
|--------------------------------------------------------------|
|----12-12-12-11----------11-11-11-9---------------------------|
|---------------------------------------------and so on...-----| 2nd gtr
|----10-10-10--9-----------9--9--9-7---------------------------|
|--0-------------00000000------------00000000------------------|
   .             ........            ........

|------------------|-------------|
|------------------|-------------|
|------------------|-------------|
|--2----let ring---|-------------| back to main riff/verse
|--2---------------|--10----9----|
|--0---------------|---8----7----|

Pre-chorus:
|-----------------------------------------------------------------------------------|
|-----------------------------------------------------------------------------------|
|-----------------------------------------------------------------------------------|
|--10-----10------------10-----9---------9-----9------------9-----7-----------------|
|--10-----10-----------------------12----9-----9----------------------10------------|
|---8-888--8--------8-8----8-8---8-------7-777-7--------7-7---7-7---7---------------|
      ...           . .    . .   .         ...          . .   . .   .
                                                                                jus-tice 
hehe
|------------------------------------------------------------------------------|----------------|
|------------------------------------------------------------------------------|----------------|
|------------------------------------------------------------------------------|----------------|
|--10-----10------------10-----9---------9-----9--------2----------------------|--2-------------|
|--10-----10-----------------------12----9-----9--------0---5--4---5---4---2---|--0---5--4--2---|
|---8-888--8--------8-8----8-8---8-------7-777-7------------3--2---3---2---0---|------3--2--0---|
      ...           . .    . .   .         ...              .  .   .   .   .          .  . .

CHORUS:                     jus  -  tice!
|---------------------------------------|-------------------------------------|
|---------------------------------------|-------------------------------------|
|----------------------------9-------9--|-------------------------------------|
|----------------------------8-------8--|-------------------------------------|
|--2--2--2-2--2--2--2--2--2--7----2--7--|--2--2--2-2--2--2--2-5-4-2-4-3-2-3---|
|--0--0--0-0--0--0--0--0--0-------0-----|--0--0--0-0--0--0--0-3-2-0-2-1-0-1---|
   .  .  . .  .  .  .  .  .       .        .  .  . .  .  .  . . . . . . . .


|---------------------------------------|-------------------------------------|------------------|
|---------------------------------------|-------------------------------------|------------------|
|---------------------------9--------9--|-------------------------------------|------------------|
|---------------------------8--------8--|-------------------------------------|------------------|
|---------------------------7--------7--|-------------------2-5-4-2-4-3-2-3---|-2-5-4-2-4-3-2-3--|
|--00000000000000000000000-------00-----|--0000000000000000-0-3-2-0-2-1-0-1---|-0-3-2-0-2-1-0-1--|
   .......................       ..        ................ . . . . . . . .     . . . . .. . .

Bridge:
|------|---------------------|-----|------------------------------|
|------|---------------------|-----|-------let ring---------------|
|------|-----------0---------|-----|------------------------------|
|--2---|--3---------------3--|--2--|-------5-------------3--------|
|--2---|--3------------------|--2--|-----------5--------------3---|
|--0---|--1------------------|--0--|--3------------1--------------|


|--------------------------------------------------------------------|
|--------------------------------------------------------------------|
|--------------------------------------------------------------------|
|--------------------------------------------------------------------|
|--7-8---5-7---3-5---2-3---2-3-2-0-7-8---5-7---3-5--2-5-4-2-4-3-2-3--|
|------0-----0-----0-----0-------------0-----0------0-3-2-0-2-1-0-1--|
   . . . . . . . . . . . . . . . . . . . . . . . .  . . . . . . . .

|--------------------------------------------------------------------|
|--------------------------------------------------------------------|
|--------------------------------------------------------------------|
|--------------------------------------------------------------------|
|--7h8---5h7---3h5---2h3---2-3-2-0-7h8---5h7---3h5--2-5-4-2-4-3-2-3--|
|------0-----0-----0-----0-------------0-----0------0-3-2-0-2-1-0-1--|
       .     .     .     .             .     .      . . . . . . . .

|------------------------------------------------------------------------|
|------------------------------------------------------------------------|
|------------------------------------------------------------------------| 2nd time 
no mutes
|------------------------------------------------------------------------|
|-2-5-4-2-4-3-2-3--2-5-4-2-4-3-2-1ph--2-5-4-2-4-3-2-3--2-5-4-2-4-3-2-2---|
|-0-3-2-0-2-1-0-1--0-3-2-0-2-1-0------0-3-2-0-2-1-0-1--0-3-2-0-2-1-0-0---|
  . . . . . . . .  . . . . . . .      . . . . . . . .  . . . . . .

Solo riff:
|-------------------------------------------------------------------|
|---muted tremolo picking-------------------------------------------|
|-------------------------------------------------------------------|
|-------------------------------------------------------------------|
|--------------------------5"--4"-----------------------------------|
|--0"--3"--6"--5"--0"--3"----------0"--3"--6"--5"--3"--6"--2"--5"---|

www.descantgott.tk
Tap to rate this tab
# A B C D E F G H I J K L M N O P Q R S T U V W X Y Z