Song name
# A B C D E F G H I J K L M N O P Q R S T U V W X Y Z

Descendents - Iceman tab

Descendents - Iceman

Standard Tuning

The other tab on here is kinda inaccurate, so I tabbed it out. It's a really fun song to 
I started by showing how to play the main riffs of the song, and then I just referred 
them throughout the song. You'll see. I'm almost positive this is 100% accurate.

Riff A:
e------------------------------|
B------------------------------|
G------------------------------|
D------4-5-2-4-------4-2-------|
A----4-------------4-----5-4---|
E--2-------------2-------------|

Riff B:
e------------------------------|
B------------------------------|
G------6-7-4-6-------6-4-------|
D----6-------------6-----7-6---|
A--4-------------4-------------|
E------------------------------|

Riff C:
e------------------------------|
B------7-8-5-7-------7-5-------|
G----6-------------6-----7-6---|
D--4-------------4-------------|
A------------------------------|
E------------------------------|

Riff D:
e------------------------------|
B------------------------------|
G------5-6-3-5-------5-3-------|
D----5-------------5-----6-5---|
A--3-------------3-------------|
E------------------------------|

Riff E:
e-------------------------------------------------------|
B---------------------------------------------7-8-5-7---|
G-------------------------------6-7-4-6-----6-----------|
D-----4-5-2-4------4-2--------6-----------4-------------|
A---4------------4-----5-4--4---------------------------|
E-2------------2----------------------------------------|

(Riff A [x2])


He's not alive, he can't dream
(Riff B)

Stone cold monster, thinking machine
(Riff C)

Never feels anger or pain
(Riff D)

What's left of his heart is inside his brain
(Riff D)

(Riff E)

Get down on your knees
e-----------------------------------------|
B-----------------------------------------|
G-----------------------------------------|
D------1-----------------------1---1--2---|
A--2-3---3-2h3p2-0-2-2-0-2-3-3---3----2---|
E-------------------------------------0---|

Say pretty please, Or do you want to freeze?
e-------------------------------------------|
B-------------------------------------------|
G-------------------------------------------|
D------1------------------------------2--6--|
A--2-3---3-2h3p2-0-2-2--0-3-1-3-2-3-2-0--6--|
E-----------------------0----------------4--|

The iceman cometh
e----------------------------------------------------|
B----------------------------------------------------|
G----------------------------------------------------| (x4)
D----------------------------------------------------|
A--2--2-2-2-2--2-2-2-2-------------------------------|
E--2--0-3-0-2--0-3-0-2--0--3--3--0-2-3--3--0-2-3--3--|


e-----------------------------------------|
B-----------------------------------------|
G-----------------------------------------|
D------1-----------------------1---1--2---|
A--2-3---3-2h3p2-0-2-2-0-2-3-3---3----2---|
E-------------------------------------0---|

My pretty pretty thing do you you want to freeze?
e-------------------------------------------|
B-------------------------------------------|
G-------------------------------------------|
D------1------------------------------2--6--|
A--2-3---3-2h3p2-0-2-2--0-3-1-3-2-3-2-0--6--|
E-----------------------0----------------4--|


(Riff A [x2])

Born without a hug or an ounce of love
(Riff B)

Doesn't know how much he can hurt someone
(Riff C)

Do you feel the chill
(Riff D)

in his calculated prose
(Riff D)

His words will kill if you
(Riff E)

leave yourself exposed


He is part of our generation; Let us mourn
e-----------------------------------------|
B-----------------------------------------|
G-----------------------------------------|
D------1-----------------------1---1--2---|
A--2-3---3-2h3p2-0-2-2-0-2-3-3---3----2---|
E-------------------------------------0---|
It's too late to save this child. It started when he was born
e-------------------------------------------|
B-------------------------------------------|
G-------------------------------------------|
D------1------------------------------2--6--|
A--2-3---3-2h3p2-0-2-2--0-3-1-3-2-3-2-0--6--|
E-----------------------0----------------4--|

(Riff A [x2])

The iceman cometh
e----------------------------------------------------|
B----------------------------------------------------|
G----------------------------------------------------| (x4)
D----------------------------------------------------|
A--2--2-2-2-2--2-2-2-2-------------------------------|
E--2--0-3-0-2--0-3-0-2--0--3--3--0-2-3--3--0-2-3--3--|


Keep your distance, don't get too close
(Riff D)
A beautiful girl once made that mistake
(Riff D)


She froze
e----------------------------------------------------|
B----------------------------------------------------|
G----------------------------------------------------| (x2)
D----------------------------------------------------|
A--2--2-2-2-2--2-2-2-2-------------------------------|
E--2--0-3-0-2--0-3-0-2--0--3--3--0-2-3--3--0-1-3--3--|


The iceman cometh
e----------------------------------------------------|
B----------------------------------------------------|
G----------------------------------------------------| (x3)
D----------------------------------------------------|
A--2--2-2-2-2--2-2-2-2-------------------------------|
E--2--0-3-0-2--0-3-0-2--0--3--3--0-2-3--3--0-2-3--3--|


He is part of our generation; Let us mourn
e---------------------------------------------|
B---------------------------------------------|
G---------------------------------------------|
D-4-------------4-----------------------------|
A-4-------------4-----------------------------|
E-2-------------2-----------------------------|
Tap to rate this tab
 
# A B C D E F G H I J K L M N O P Q R S T U V W X Y Z