Song name
# A B C D E F G H I J K L M N O P Q R S T U V W X Y Z

Descendents - Milo Goes To College tab

Descendents

Milo Goes to College

1.  Myage
2.  I Want To Be A Bear
3.  I'm Not A Loser
4.  Parents
5.  Tonyage
6.  M-16
7.  I'm Not A Punk
8.  Catalina
9.  Suburban Home
10.  Statue Of Liberty
11.  Kabuki Girl
12.  Marriage
13.  Hope
14.  Bikeage
15.  Jean Is Dead

1. Myage

e|------------------------------------------------------------------|
B|------------------------------------------------------------------|
G|------------------------------------------------------------------|
D|-------5-4-4-4-0------------------------5-4-4-4-0-----------------|
A|-5-5-5-----------3-3-3-0---0-3-4--5-5-5-----------3-3-3-0---0-3-4-|
E|-------------------------3--------------------------------3-------|

e|-------------------------------------------------------------------|
B|-------------------------------------------------------------------|
G|-77-7777-55-5555-77-7777-55-5555-77-7777-55-5555-77-7777-5555------|
D|-77-7777-55-5555-77-7777-55-5555-77-7777-55-5555-77-7777-5555-5555-|
A|-55-5555-33-3333-55-5555-33-3333-55-5555-33-3333-55-5555-3333-5555-|
E|--------------------------------------------------------------3333-|
      xxxx    xxxx    xxxx    xxxx    xxxx    xxxx    xxxx

e|------------------------------------------------------------------|
B|-------------------------5-7------------------------------5-7-----|
G|-777-555-555-777-777-555-5-7-777--777-555-555-777-777-555-5-7-777-|
D|-777-555-555-777-777-555-3-5-777--777-555-555-777-777-555-3-5-777-|
A|-555-333-333-555-555-333-----555--555-333-333-555-555-333-----555-|
E|------------------------------------------------------------------|

e|-----------------------------------------------------|
B|-----------------------------------------------------|
G|-77777777-55555555-1212121212121212-1212121212121212-|
D|-77777777-55555555-1212121212121212-1212121212121212-|
A|-55555555-33333333-1010101010101010-1010101010101010-|
E|-----------------------------------------------------|

e|---------------------------------------------|
B|---------------------------------------------|
G|-77777777-55555555-77777777-1212121212121212-|
D|-77777777-55555555-77777777-1212121212121212-|
A|-55555555-33333333-55555555-1010101010101010-|
E|---------------------------------------------|

e|------------------------------------------------------------------|
B|------------------------------------------------------------------|
G|------------------------------------------------------------------|
D|-------5-4-4-4-0------------------------5-4-4-4-0-----------------|
A|-5-5-5-----------3-3-3-0---0-3-4--5-5-5-----------3-3-3-0---0-3-4-|
E|-------------------------3--------------------------------3-------|

e|-------------------------------------------------------------------|
B|-------------------------------------------------------------------|
G|-77-7777-55-5555-77-7777-55-5555-77-7777-55-5555-77-7777-5555------|
D|-77-7777-55-5555-77-7777-55-5555-77-7777-55-5555-77-7777-5555-5555-|
A|-55-5555-33-3333-55-5555-33-3333-55-5555-33-3333-55-5555-3333-5555-|
E|--------------------------------------------------------------3333-|
      xxxx    xxxx    xxxx    xxxx    xxxx    xxxx    xxxx

e|------------------------------------------------------------------|
B|-------------------------5-7------------------------------5-7-----|
G|-777-555-555-777-777-555-5-7-777--777-555-555-777-777-555-5-7-777-|
D|-777-555-555-777-777-555-3-5-777--777-555-555-777-777-555-3-5-777-|
A|-555-333-333-555-555-333-----555--555-333-333-555-555-333-----555-|
E|------------------------------------------------------------------|

e|------------------------------------------------------------------|
B|------------------------------------------------------------------|
G|------------------------------------------------------------------|
D|-------5-4-4-4-0------------------------5-4-4-4-0-----------------|
A|-5-5-5-----------3-3-3-0---0-3-4--5-5-5-----------3-3-3-0---0-3-4-|
E|-------------------------3--------------------------------3-------|

e|-------------------------------------------------------------------|
B|-------------------------------------------------------------------|
G|-77-7777-55-5555-77-7777-55-5555-77-7777-55-5555-77-7777-5555------|
D|-77-7777-55-5555-77-7777-55-5555-77-7777-55-5555-77-7777-5555-5555-|
A|-55-5555-33-3333-55-5555-33-3333-55-5555-33-3333-55-5555-3333-5555-|
E|--------------------------------------------------------------3333-|
      xxxx    xxxx    xxxx    xxxx    xxxx    xxxx    xxxx

e|------------------------------------------------------------------|
B|-------------------------5-7------------------------------5-7-----|
G|-777-555-555-777-777-555-5-7-777--777-555-555-777-777-555-5-7-777-|
D|-777-555-555-777-777-555-3-5-777--777-555-555-777-777-555-3-5-777-|
A|-555-333-333-555-555-333-----555--555-333-333-555-555-333-----555-|
E|------------------------------------------------------------------|

e|-----------------------------------------------------|
B|-----------------------------------------------------|
G|-77777777-55555555-1212121212121212-1212121212121212-|
D|-77777777-55555555-1212121212121212-1212121212121212-|
A|-55555555-33333333-1010101010101010-1010101010101010-|
E|-----------------------------------------------------|

e|---------------------------------------------|
B|---------------------------------------------|
G|-77777777-55555555-77777777-1212121212121212-|
D|-77777777-55555555-77777777-1212121212121212-|
A|-55555555-33333333-55555555-1010101010101010-|
E|---------------------------------------------|

e|-------------------------------------|
B|-------------------------------------|
G|-------------------88888888-88888888-|
D|-88888888-66666666-88888888-88888888-|
A|-88888888-66666666-66666666-66666666-|
E|-66666666-44444444-------------------|

e|---------------------------------------------|
B|---------------------------------------------|
G|-77777777-55555555-77777777-1212121212121212-|
D|-77777777-55555555-77777777-1212121212121212-|
A|-55555555-33333333-55555555-1010101010101010-|
E|---------------------------------------------|

e|------|
B|------|
G|-7777-
D|-7777-
A|-5555-
E|------


2. I Want to be a Bear

e|-------------------|
B|-------------------|
G|-------------------|
D|-1111-------9------| x4
A|-9-9-1111-9-7-1111-|
E|-----9-9--7---9-9--|

e|----------------------------------------|
B|----------------------------------------|
G|----------------------------------------|
D|-1111-------9---------1111-------9------|
A|-9-9-1111-9-7-1111----9-9-1111-9-7-1111-|
E|-----9-9--7---9-9---------9-9--7---9-9--|

e|---------------------|
B|---------------------|
G|---------------------|
D|-1111-------9--------| x4
A|-9-9-1111-9-7-1111---|
E|-----9-9--7---9-9----|
pm---------------------|

e|--------------|
B|--------------|
G|--------------|
D|------------9-| x2
A|-11111111-9-7-|
E|-9-9-9-9--7---|

e|---------------------------|
B|---------------------------|
G|---------------------------|
D|-1212----------------------| x2
A|-1010-1212-99-77--99999999-|
E|------1010-77-55--77777777-|

e|-------------------|
B|-------------------|
G|-------------------|
D|-1111-------9------| x4
A|-9-9-1111-9-7-1111-|
E|-----9-9--7---9-9--|

e|--------------|
B|--------------|
G|--------------|
D|------------9-|
A|-11111111-9-7-|
E|-9-9-9-9--7---|

e|--------------------------|
B|--------------------------|
G|--------------------------|
D|-1212---------------------| x2
A|-1010-1212-99-77-99999999-|
E|------1010-77-55-77777777-|

e|-----------------------------------------------|
B|-----------------------------------------------|
G|-----------------------------------------------|
D|---------------11111111---------------11-------|
A|-9999-12121212-9-9-9-9-12121212--9-12-9--12--9-|
E|-7777-10101010---------10101010--7-10----10--7-|


3. I'm not a Loser

e|-----------------------------------|
B|-----------------------------------|
G|-----------------------------------|
D|-6666-7777-9999-7777-6-7-9-7-6-4-6-|
A|-4444-5555-7777-5555-4-5-7-5-4-2-4-|
E|-----------------------------------|

e|-----------------------------------|
B|-----------------------------------|
G|-----------------------------------|
D|-----------7-444444444444-6666-9-6-| x4
A|-4-4-4-7-7-5-222222222222-4444-7-4-|
E|-2-2-2-5-5-------------------------|

e|-----------------------------------|
B|-----------------------------------|
G|-----------------------------------|
D|-6666-7777-9999-7777-6-7-9-7-6-4-6-| x2
A|-4444-5555-7777-5555-4-5-7-5-4-2-4-|
E|-----------------------------------|

e|---------------|
B|---------------|
G|---------------|
D|-6-7-9-7-6-4-6-|
A|-4-5-7-5-4-2-4-|
E|---------------|

e|-----------------------------------|
B|-----------------------------------|
G|-----------------------------------|
D|-----------7-444444444444-6666-9-6-| x4
A|-4-4-4-7-7-5-222222222222-4444-7-4-|
E|-2-2-2-5-5-------------------------|

e|-----------------------------------|
B|-----------------------------------|
G|-----------------------------------|
D|-6666-7777-9999-7777-6-7-9-7-6-4-6-| x2
A|-4444-5555-7777-5555-4-5-7-5-4-2-4-|
E|-----------------------------------|

e|----------------------------------------------------|
B|----------------------------------------------------|
G|----------------------------------------------------|
D|-11111111111111111111111111111111-99999999-66666666-| x4
A|-9-9-9-9-9-9-9-9-9-9-9-9-9-9-9-9--77777777-44444444-|
E|----------------------------------------------------|


4.  Parents

(play this chord with the rythm of the song)
e|---
B|-0-
G|-4-
D|-2-
A|---
E|---


5.  Tonyage

e|----------------------------------------------------|
B|----------------------------------------------------|
G|----------------------------------------------------|
D|----------------------------------------------------|
A|---5-4----------5-4----------5-4----------5-4-------|
E|-3-----3-6-6--3-----3-6-6--3-----3-6-6--3-----3-6-6-|

e|-------------------------------|
B|-------------------------------|
G|-------------------------------|
D|-5--8----5--8----5--8----5--8--|
A|-5--8----5--8----5--8----5--8--|
E|-3--6----3--6----3--6----3--6--|

e|----------------------------------------------------|
B|----------------------------------------------------|
G|----------------------------------------------------|
D|----------------------------------------------------|
A|---5-4----------5-4----------5-4----------5-4-------|
E|-3-----3-6-6--3-----3-6-6--3-----3-6-6--3-----3-6-6-|

e|--------------------------|
B|--------------------------|
G|--------------------------|
D|--------------------------|
A|---5-4----------5-4-------|
E|-3-----3-6-6--3-----3-6-6-|

e|-------------------------------|
B|-------------------------------|
G|-------------------------------|
D|-5--8----5--8----5--8----5--8--|
A|-5--8----5--8----5--8----5--8--|
E|-3--6----3--6----3--6----3--6--|


e|---------------------------------------------------------------------|
B|---------------------------------------------------------------------|
G|---------------------------------------------------------------------|
D|-------------------------------------5-4---4-3--------5-4---4-3------|
A|---5-4---4-3--------5-4---4-3------3-----3-----3-6--3-----3-----3-6--|
E|-3-----3-----3-6--3-----3-----3-6------------------------------------|

e|---------------|
B|---------------|
G|---------------|
D|-5-4-3---------|
A|-------5-4-3---|
E|-------------3-|

e|-----------------------------|
B|-----------------------------|
G|--------5-5-8---------5-5-8--|
D|-5-5-8--5-5-8--5-5-8--5-5-8--|
A|-5-5-8--3-3-6--5-5-8--3-3-6--|
E|-3-3-6---------3-3-6---------|

e|--------------------------------------|
B|--------------------------------------|
G|-1010---------------1010--------------|
D|-1010-1010-88-1010--1010-1010-88-1010-|
A|-8-8--1010-88-1010--8-8--1010-88-1010-|
E|------8-8--66-8-8--------8-8--66-8-8--|

e|------------------------------------------|
B|------------------------------------------|
G|-1212-----------------1212----------------|
D|-1212-1212-1010-1212--1212-1212-1010-1212-|
A|-1010-1212-1010-1212--1010-1212-1010-1212-|
E|------1010-8-8--1010-------1010-9-9--1010-|

e|--------------|
B|--------------|
G|---7-6--------|
D|-5-7-6-x-8-8--| x6
A|-5-5-4-x-8-8--|
E|-3-----x-6-6--|


6.  M-16

e|-------------------------|
B|-------------------------|
G|-------------------------|
D|-------------------------|
A|---------5-5-----5-5-8---|
E|-5-5-7-7-----7-7-------7-|

e|---------------|
B|---------------|
G|-9--9--10------|
D|-9--9--10-9999-| x3
A|-7--7--8--9999-|
E|----------7777-|

e|-------------------------|
B|-------------------------|
G|-------------------------|
D|-------------------------|
A|-777-5-77-10-777-5-7-9-7-|
E|-------------------------|

e|------------------------|
B|------------------------|
G|-9999999-12-999999-11---|
D|-9999999-12-999999-11-9-| x2
A|-7777777-10-777777-9--9-|
E|----------------------7-|

e|------------------------------|
B|------------------------------|
G|--------11-999999-11----------|
D|-999999-11-999999-11-99999999-|
A|-999999-9--777777-9--99999999-|
E|-777777--------------77777777-|

e|------------------|
B|------------------|
G|-99999999-10------|
D|-99999999-10-9999-| x3
A|-77777777-8--9999-|
E|-------------7777-|

e|-------------------------|
B|-------------------------|
G|-------------------------|
D|-------------------------|
A|-777-5-77-10-777-5-7-9-7-|
E|-------------------------|

e|------------------------|
B|------------------------|
G|-9999999-12-999999-11---|
D|-9999999-12-999999-11-9-| x2
A|-7777777-10-777777-9--9-|
E|----------------------7-|

e|------------------------------|
B|------------------------------|
G|--------11-999999-11----------|
D|-999999-11-999999-11-99999999-|
A|-999999-9--777777-9--99999999-|
E|-777777--------------77777777-|

e|----------------------|
B|----------------------|
G|-9----7--9----7----9--|
D|-9----7--9----7----9--|
A|-7----5--7----5----7--|
E|----------------------|


7.  I'm Not A Punk

e|-----------------|
B|-----------------|
G|-----8-8-5-5-7---|
D|-5-5-8-8-5-5-7-8-| x8
A|-5-5-6-6-3-3-5-8-|
E|-3-3-----------6-|

e|---------|
B|---------|
G|-7-7-7---|
D|-7-7-7-9-|
A|-5-5-5-9-|
E|-------7-|

e|------------------------|
B|------------------------|
G|-8888-10101010-77777777-|
D|-8888-10101010-77777777-| x2
A|-6666-8-8-8-8--55555555-|
E|------------------------|

e|---------|
B|---------|
G|-7-7-7---|
D|-7-7-7-9-|
A|-5-5-5-9-|
E|-------7-|

e|-----------------|
B|-----------------|
G|-----8-8-5-5-7---|
D|-5-5-8-8-5-5-7-8-| x8
A|-5-5-6-6-3-3-5-8-|
E|-3-3-----------6-|

e|---------|
B|---------|
G|-7-7-7---|
D|-7-7-7-9-|
A|-5-5-5-9-|
E|-------7-|

e|------------------------|
B|------------------------|
G|-8888-10101010-77777777-|
D|-8888-10101010-77777777-| x2
A|-6666-8-8-8-8--55555555-|
E|------------------------|

e|----------------|
B|----------------|
G|-7-7-7----------|
D|-7-7-7-9--x-x-x-| x4
A|-5-5-5-9--x-x-x-|
E|-------7--x-x-x-|

e|------------------------|
B|------------------------|
G|-8888-10101010-77777777-|
D|-8888-10101010-77777777-| x3
A|-6666-8-8-8-8--55555555-|
E|------------------------|

e|--------------------|
B|--------------------|
G|-8888-10101010------|
D|-8888-10101010--6-5-|
A|-6666-8-8-8-8---6-5-|
E|----------------4-3-|


8.  Catalina

come in at 0:05 repeat until 0:25
e|---
B|---
G|---
D|-9-
A|-9-
E|-7-

e|---------------------------|
B|---------------------------|
G|----------999-777----------|
D|-99999999-999-777-77777777-| x4
A|-99999999-777-555-77777777-|
E|-77777777---------55555555-|

e|----------------|
B|----------------|
G|----------------|
D|-66-44-22222222-| x4
A|-44-22-00000000-|
E|----------------|

e|--------------------------------------|
B|--------------------------------------|
G|----------22-6-7-44-44444444----------|
D|-44444444-22-6-7-44-44444444-55555555-|
A|-44444444-00-4-5-22-22222222-55555555-|
E|-22222222--------------------33333333-|

e|----------------------------------|
B|----------------------------------|
G|----------------------------------|
D|-14--12--11--12----14-12-11-12-14-|
A|-14--12--11--12----14-12-11-12-14-|
E|-12--10--9---10----12-10-9--10-12-|

e|---------------------------|
B|---------------------------|
G|----------999-777----------|
D|-99999999-999-777-77777777-| x4
A|-99999999-777-555-77777777-|
E|-77777777---------55555555-|

e|----------------|
B|----------------|
G|----------------|
D|-66-44-22222222-| x4
A|-44-22-00000000-|
E|----------------|

e|--------------------------------------|
B|--------------------------------------|
G|----------22-6-7-44-44444444----------|
D|-44444444-22-6-7-44-44444444-55555555-|
A|-44444444-00-4-5-22-22222222-55555555-|
E|-22222222--------------------33333333-|

e|----------------------------------|
B|----------------------------------|
G|----------------------------------|
D|-14--12--11--12----14-12-11-12-14-|
A|-14--12--11--12----14-12-11-12-14-|
E|-12--10--9---10----12-10-9--10-12-|


9.  Suburban Home

e|--------------------------------------------------|
B|--------------------------------------------------|
G|-77777777------------77777777------------10101010-|
D|-77777777-888-7-777--77777777-888-7-777--10101010-|
A|-55555555-888-7-777--55555555-888-7-777--8-8-8-8--|
E|----------666-5-555-----------666-5-555-----------|

e|-----------------------------------------------|
B|-----------------------------------------------|
G|-77777777------------77777777-1010101010101010-|
D|-77777777-888-7-777--77777777-1010101010101010-|
A|-55555555-888-7-777--55555555-8-8-8-8-8-8-8-8--|
E|----------666-5-555----------------------------|

e|--------------------------------------------------------|
B|--------------------------------------------------------|
G|-12121212121212121212121212121212-77777777-99-1010-1111-|
D|-12121212121212121212121212121212-77777777-99-1010-1111-|
A|-10101010101010101010101010101010-55555555-77-8-8--9-9--|
E|--------------------------------------------------------|

e|----------------------------------|
B|----------------------------------|
G|-12121212121212121212121212121212-
D|-12121212121212121212121212121212-
A|-10101010101010101010101010101010-
E|----------------------------------

e|-----------------------------------------------------|
D|-----------------------------------------------------|
G|-77777777-----77777777-----77777777-----77777777-----|
D|-77777777-777-77777777-777-77777777-777-77777777-777-|
A|-55555555-777-55555555-777-55555555-777-55555555-777-|
E|----------555----------555----------555----------555-|

e|--------------------------------------------------|
B|--------------------------------------------------|
G|-77777777------------77777777------------10101010-|
D|-77777777-888-7-777--77777777-888-7-777--10101010-|
A|-55555555-888-7-777--55555555-888-7-777--8-8-8-8--|
E|----------666-5-555-----------666-5-555-----------|

e|-----------------------------------------------|
B|-----------------------------------------------|
G|-77777777------------77777777-1010101010101010-|
D|-77777777-888-7-777--77777777-1010101010101010-|
A|-55555555-888-7-777--55555555-8-8-8-8-8-8-8-8--|
E|----------666-5-555----------------------------|

e|--------------------------------------------------------|
B|--------------------------------------------------------|
G|-12121212121212121212121212121212-77777777-99-1010-1111-|
D|-12121212121212121212121212121212-77777777-99-1010-1111-|
A|-10101010101010101010101010101010-55555555-77-8-8--9-9--|
E|--------------------------------------------------------|

e|----------------------------------|
B|----------------------------------|
G|-12121212121212121212121212121212-
D|-12121212121212121212121212121212-
A|-10101010101010101010101010101010-
E|----------------------------------

e|-----------------------------------------------------|
D|-----------------------------------------------------|
G|-77777777-----77777777-----77777777-----77777777-----|
D|-77777777-777-77777777-777-77777777-777-77777777-777-|
A|-55555555-777-55555555-777-55555555-777-55555555-777-|
E|----------555----------555----------555----------555-|

e|----------------------------------------------------------------------|
B|----------------------------------------------------------------------|
G|----------------------------------------------------------------------|
D|-33-55-33-------------33-44-55-33-------------33-44-77-55-------------|
A|----------55-11-33-55-------------55-11-33-55-------------77-44-55-77-|
E|----------------------------------------------------------------------|

e|-----------|
B|-----------|
G|-----------|
D|-6/777-----|
A|-------888-|
E|-----------|


e|--------------------------------------------------|
B|--------------------------------------------------|
G|-77777777------------77777777------------10101010-|
D|-77777777-888-7-777--77777777-888-7-777--10101010-|
A|-55555555-888-7-777--55555555-888-7-777--8-8-8-8--|
E|----------666-5-555-----------666-5-555-----------|

e|-----------------------------------------------|
B|-----------------------------------------------|
G|-77777777------------77777777-1010101010101010-|
D|-77777777-888-7-777--77777777-1010101010101010-|
A|-55555555-888-7-777--55555555-8-8-8-8-8-8-8-8--|
E|----------666-5-555----------------------------|

e|--------------------------------------------------------|
B|--------------------------------------------------------|
G|-12121212121212121212121212121212-77777777-99-1010-1111-|
D|-12121212121212121212121212121212-77777777-99-1010-1111-|
A|-10101010101010101010101010101010-55555555-77-8-8--9-9--|
E|--------------------------------------------------------|

e|-----------------------------------------------|
B|-----------------------------------------------|
G|-12121212121212121212121212121212-77777777-----|
D|-12121212121212121212121212121212-77777777-777-|
A|-10101010101010101010101010101010-55555555-777-|
E|-------------------------------------------555-|

e|-----------------------------------------------------------------|
B|-----------------------------------------------------------------|
G|-7777-8888-7777--7777-8888-7777--7777-8888-7777--7777-8888-7777--|
D|-7777-8888-7777--7777-8888-7777--7777-8888-7777--7777-8888-7777--|
A|-5555-6666-5555--5555-6666-5555--5555-6666-5555--5555-6666-5555--|
E|-----------------------------------------------------------------|

e|--------------------22-|
B|--------------------33-|
G|-7-7-7-7-7-7-7-7-7--22-|
D|-7-7-7-7-7-7-7-7-7--00-|
A|-5-5-5-5-5-5-5-5-5-----|
E|-----------------------|

10.  Statue Of Liberty

e|---------------|
B|---------------|
G|-44-555-77-555-|
D|-22-333-55-333-| x12
A|---------------|
E|---------------|

e|------------------------------------|
B|------------------------------------|
G|-77777777-55555555-4444444444444444-|
D|-55555555-33333333-2222222222222222-| x3
A|------------------------------------|
E|------------------------------------|

e|-------------------|
B|-------------------|
G|-77777777-55555555-|
D|-55555555-33333333-|
A|-------------------|
E|-------------------|

e|-----------------------------------------------------------|
B|-----------------------------------------------------------|
G|-44-4-55-7--44-4-55-7--44-4-55-7--44-4-55-7--44-4-55-7--4--|
D|-22-2-33-5--22-2-33-5--22-2-33-5--22-2-33-5--22-2-33-5--2--|
A|-----------------------------------------------------------|
E|-----------------------------------------------------------|

e|---------------|
B|---------------|
G|-44-555-77-555-|
D|-22-333-55-333-| x10
A|---------------|
E|---------------|

e|------------------------------------|
B|------------------------------------|
G|-77777777-55555555-4444444444444444-|
D|-55555555-33333333-2222222222222222-| x3
A|------------------------------------|
E|------------------------------------|

e|-------------------|
B|-------------------|
G|-77777777-55555555-|
D|-55555555-33333333-|
A|-------------------|
E|-------------------|

e|--------------------------------------------------------------|
B|--------------------------------------------------------------|
G|-44-4-55-7--44-4-55-7--44-4-55-7--44-4-55-7--44-4-55-7--4--4--|
D|-22-2-33-5--22-2-33-5--22-2-33-5--22-2-33-5--22-2-33-5--2--2--|
A|--------------------------------------------------------------|
E|--------------------------------------------------------------|


11.  Kabuki Girl

e|----------------|
B|----------------|
G|-6666-6666-6666-|
D|-6666-6666-6666-|
A|-4444-4444-4444-|
E|----------------|

e|------------------------------------------------------------------|
B|------------------------------------------------------------------|
G|-2-4-6666--4-4-4-4-6666--4-4-4-4-6666-2222-4444-6666--------------|
D|-2-4-6666--2-2-4-4-6666--2-2-4-4-6666-2222-4444-6666-7-7-66666666-|
A|-0-2-4444------2-2-4444------2-2-4444-0000-2222-4444-7-7-66666666-|
E|-----------------------------------------------------5-5-44444444-|

e|--------------------------------------------------------------------------|
B|--------------------------------------------------------------------------|
G|-2-4-6666--4-4-4-4-6666--4-4-4-4-6666-2222-4444-6666----------------------|
D|-2-4-6666--2-2-4-4-6666--2-2-4-4-6666-2222-4444-6666-7-7-6666666666666666-|
A|-0-2-4444------2-2-4444------2-2-4444-0000-2222-4444-7-7-6666666666666666-|
E|-----------------------------------------------------5-5-4444444444444444-|

e|--------------------------------------------------------------|
B|--------------------------------------------------------------|
G|-----------------------------------7777777777777777----6-4----|
D|-4444444444444444-2222222222222222-7777777777777777-6--6-4-6--|
A|-4444444444444444-2222222222222222-5555555555555555-6--4-2-6--|
E|-2222222222222222-0000000000000000------------------4------4--|
pm--------------------------------------------------------------|

e|--------------------------------------------------------------------------|
B|--------------------------------------------------------------------------|
G|-2-4-6666--4-4-4-4-6666--4-4-4-4-6666-2222-4444-6666----------------------|
D|-2-4-6666--2-2-4-4-6666--2-2-4-4-6666-2222-4444-6666-7-7-6666666666666666-|
A|-0-2-4444------2-2-4444------2-2-4444-0000-2222-4444-7-7-6666666666666666-|
E|-----------------------------------------------------5-5-4444444444444444-|

e|--------------------------------------------------------------|
B|--------------------------------------------------------------|
G|-----------------------------------7777777777777777----6-4----|
D|-4444444444444444-2222222222222222-7777777777777777-6--6-4-6--|
A|-4444444444444444-2222222222222222-5555555555555555-6--4-2-6--|
E|-2222222222222222-0000000000000000------------------4------4--|
pm--------------------------------------------------------------|

e|-----------------------------------------------------------|
B|-----------------------------------------------------------|
G|-2-4-6666--4-4-4-4-6666--4-4-4-4-6666-2222-4444-6666-------|
D|-2-4-6666--2-2-4-4-6666--2-2-4-4-6666-2222-4444-6666-7-7-6-|
A|-0-2-4444------2-2-4444------2-2-4444-0000-2222-4444-7-7-6-|
E|-----------------------------------------------------5-5-4-|


12.  Marriage

e|----------------------------------------|
B|----------------------------------------|
G|----------------------------------------|
D|-9--7--7--5----9--7--7--555555555555555-|
A|-9--7--7--5----9--7--7--555555555555555-|
E|-7--5--5--3----7--5--5--333333333333333-|

e|------------------------------------|
B|------------------------------------|
G|-------------------9999999999999999-|
D|-99999999-77777777-9999999999999999-| x2
A|-99999999-77777777-7777777777777777-|
E|-77777777-55555555------------------|

e|---------------------------------------|
B|---------------------------------------|
G|---------------------------------------|
D|-99999999-77777777-77777777-55555555---|
A|-99999999-77777777-77777777-55555555---| x2
E|-77777777-55555555-55555555-33333333---|
pm  -------  -------  -------  ----------|

e|------------------------------------|
B|------------------------------------|
G|-------------------9999999999999999-|
D|-99999999-77777777-9999999999999999-| x4
A|-99999999-77777777-7777777777777777-|
E|-77777777-55555555------------------|

e|-------------------|
B|-------------------|
G|-------------------|
D|-6----9x9xx--9x9xx-|
A|-6----9x9xx--9x9xx-|
E|-4----7x7xx--7x7xx-|

e|--------------------------------------------|
B|--------------------------------------------|
G|-------------------------------------9--9---|
D|-6666666666666666-77777777-99999999--9--9---|
A|-6666666666666666-77777777-99999999--7--7---|
E|-4444444444444444-55555555-77777777---------|
pm--------------------------------------------|

e|---------------------------------------|
B|---------------------------------------|
G|---------------------------------------|
D|-99999999-77777777-77777777-55555555---|
A|-99999999-77777777-77777777-55555555---| x2
E|-77777777-55555555-55555555-33333333---|
pm  ------- --------  -------  ----------|

e|----------------------------------------------------|
B|----------------------------------------------------|
G|------------------7777777777777777------------------|
D|-9999999999999999-7777777777777777-9999999999999999-|
A|-9999999999999999-5555555555555555-9999999999999999-|
E|-7777777777777777------------------7777777777777777-|

e|----------------------------------|
B|----------------------------------|
G|-11111111111111111111111111111111-
D|-11111111111111111111111111111111-
A|-9-9-9-9-9-9-9-9-9-9-9-9-9-9-9-9--|
E|----------------------------------|

e|-------------------|
B|-------------------|
G|-----------------9-|
D|-99999999-7--7-7-9-|
A|-99999999-7--7-7-7-|
E|-77777777-5--5-5---|


13.  Hope

e|-------------|
B|-------------|
G|------6-7----|
D|-44-4-6-7-77-| x2
A|-44-4-4-5-77-|
E|-22-2-----55-|

e|--------------------------------------------------------|
B|--------------------------------------------------------|
G|----------77777777----------------------------7777------|
D|-99999999-77777777-99999999-77777777-55555555-7777-7777-|
A|-99999999-55555555-99999999-77777777-55555555-5555-7777-|
E|-77777777----------77777777-55555555-33333333------5555-|

e|-------------|
B|-------------|
G|------6-7----|
D|-44-4-6-7-77-| x2
A|-44-4-4-5-77-|
E|-22-2-----55-|

e|--------------------------------------------------------|
B|--------------------------------------------------------|
G|----------77777777----------------------------7777------|
D|-99999999-77777777-99999999-77777777-55555555-7777-7777-|
A|-99999999-55555555-99999999-77777777-55555555-5555-7777-|
E|-77777777----------77777777-55555555-33333333------5555-|

e|-------------|
B|-------------|
G|------6-7----|
D|-44-4-6-7-77-| x2
A|-44-4-4-5-77-|
E|-22-2-----55-|

e|--------------------------------------------------------|
B|--------------------------------------------------------|
G|----------77777777----------------------------7777------|
D|-99999999-77777777-99999999-77777777-55555555-7777-7777-|
A|-99999999-55555555-99999999-77777777-55555555-5555-7777-|
E|-77777777----------77777777-55555555-33333333------5555-|

e|----------------------|
B|----------------------|
G|--------------77------|
D|-99999999~-55-77-7777-|
A|-99999999~-55-55-7777-|
E|-77777777~-33----5555-|

e|--------------------------------------------------------|
B|--------------------------------------------------------|
G|----------77777777----------------------------7777------|
D|-99999999-77777777-99999999-77777777-55555555-7777-7777-|
A|-99999999-55555555-99999999-77777777-55555555-5555-7777-|
E|-77777777----------77777777-55555555-33333333------5555-|

e|-------------|
B|-------------|
G|------6-7----|
D|-44-4-6-7-77-| x4
A|-44-4-4-5-77-|
E|-22-2-----55-|

e|--------------------------------|
B|--------------------------------|
G|-6--6-----------------7777------|
D|-6--6--7--7--55555555-7777-7777-|
A|-4--4--7--7--55555555-5555-7777-|
E|-------5--5--33333333------5555-|

e|---------------------|
B|---------------------|
G|------6-66-7-77------|
D|-4-44-6-66-7-77-7777-|
A|-4-44-4-44-5-55-7777-|
E|-2-22-----------5555-|


14.  Bikeage

e|-00000000-00000000-|
B|-11111111-11111111-|
G|-00000000-22222222-|
D|-22222222-33333333-| x3
A|-33333333----------|
E|-------------------|

e|-00000000-0--|
B|-11111111-1--|
G|-00000000-2--|
D|-22222222-3--|
A|-33333333----|
E|-------------|

e|---------------------------------------|
B|---------------------------------------|
G|-55555555------------------------------|
D|-55555555-33333333-77777777-55555555---| x4
A|-33333333-33333333-77777777-55555555---|
E|----------11111111-55555555-33333333---|
pm---------------------------------------|

e|----------------------------------------------------------------------|
B|----------------------------------------------------------------------|
G|-5555555555555555------------------55555555---------------------------|
D|-5555555555555555-3333333333333333-55555555-33333333-2222222222222222-|
A|-3333333333333333-3333333333333333-33333333-33333333-2222222222222222-|
E|------------------1111111111111111----------11111111-0000000000000000-|

e|-------------------------------------|
B|-------------------------------------|
G|-55555555----------55555555----------|
D|-55555555-33333333-55555555-33333333-|
A|-33333333-33333333-33333333-33333333-|
E|----------11111111----------11111111-|

e|----------------------------------------------------------------------|
B|----------------------------------------------------------------------|
G|-5555555555555555------------------55555555---------------------------|
D|-5555555555555555-3333333333333333-55555555-33333333-2222222222222222-|
A|-3333333333333333-3333333333333333-33333333-33333333-2222222222222222-|
E|------------------1111111111111111----------11111111-0000000000000000-|

e|-------------------------------------|
B|-------------------------------------|
G|-55555555----------55555555----------|
D|-55555555-33333333-55555555-33333333-|
A|-33333333-33333333-33333333-33333333-|
E|----------11111111----------11111111-|

e|-----------------------------------------------------|
B|-----------------------------------------------------|
G|-55555555-77777777-1010101010101010-1212121212121212-|
D|-55555555-77777777-1010101010101010-1212121212121212-| x3
A|-33333333-55555555-8-8-8-8-8-8-8-8--1010101010101010-|
E|-----------------------------------------------------|

e|--------------------------------------------------------------|
B|--------------------------------------------------------------|
G|-55555555-1212121212121212-77777777-1010101010101010-55555555-|
D|-55555555-1212121212121212-77777777-1010101010101010-55555555-|
A|-33333333-1010101010101010-55555555-8-8-8-8-8-8-8-8--33333333-|
E|--------------------------------------------------------------|

e|----------------------------------------------------------------------|
B|----------------------------------------------------------------------|
G|-5555555555555555------------------55555555---------------------------|
D|-5555555555555555-3333333333333333-55555555-33333333-2222222222222222-|
A|-3333333333333333-3333333333333333-33333333-33333333-2222222222222222-|
E|------------------1111111111111111----------11111111-0000000000000000-|

e|-------------------------------------|
B|-------------------------------------|
G|-55555555----------55555555----------|
D|-55555555-33333333-55555555-33333333-|
A|-33333333-33333333-33333333-33333333-|
E|----------11111111----------11111111-|

e|----------------------------------------------------------------------|
B|----------------------------------------------------------------------|
G|-5555555555555555------------------55555555---------------------------|
D|-5555555555555555-3333333333333333-55555555-33333333-2222222222222222-|
A|-3333333333333333-3333333333333333-33333333-33333333-2222222222222222-|
E|------------------1111111111111111----------11111111-0000000000000000-|

e|-------------------------------------|
B|-------------------------------------|
G|-55555555----------55555555----------|
D|-55555555-33333333-55555555-33333333-|
A|-33333333-33333333-33333333-33333333-|
E|----------11111111----------11111111-|

e|-----------------------------------------|
B|-----------------------------------------|
G|-55555555----------55555555-----------4--|
D|-55555555-33333333-55555555-33333333--4--|
A|-33333333-33333333-33333333-33333333--2--|
E|----------11111111----------11111111-----|


15.  Jean Is Dead

e|-----------------------------|
B|-----------------------------|
G|-----------------------------|
D|-------2----------5-5-4------| x4
A|-2-3-5---5-5--2-3-------5-5--|
E|-----------------------------|

e|----------------------------------------------|
B|----------------------------------------------|
G|-444444-44--444444-44--444444-44--444444-44---|
D|-444444-44--444444-44--444444-44--444444-44---|
A|-222222-22--222222-22--222222-22--222222-22---|
E|----------------------------------------------|
pm-------     ------     ------     ------------|

e|-----------------------------------------------------|
B|-----------------------------------------------------|
G|-66666666-66666666-1111111111111111-1111111111111111-|
D|-66666666-66666666-1111111111111111-1111111111111111-|
A|-44444444-44444444-9-9-9-9-9-9-9-9--9-9-9-9-9-9-9-9--|
E|-----------------------------------------------------|

e|-----------------------------|
B|-----------------------------|
G|-----------------------------|
D|-------2----------5-5-4------| x4
A|-2-3-5---5-5--2-3-------5-5--|
E|-----------------------------|

e|------------------------------------|
B|------------------------------------|
G|---------------------------77777777-|
D|-2222222222222222-55555555-77777777-| x2
A|-2222222222222222-55555555-55555555-|
E|-0000000000000000-33333333----------|

e|-----------------------------------------------------|
B|-----------------------------------------------------|
G|-66666666-66666666-1111111111111111-1111111111111111-|
D|-66666666-66666666-1111111111111111-1111111111111111-|
A|-44444444-44444444-9-9-9-9-9-9-9-9--9-9-9-9-99-9--9--|
E|-----------------------------------------------------|

e|-----------------------------|
B|-----------------------------|
G|-----------------------------|
D|-------2----------5-5-4------| x4
A|-2-3-5---5-5--2-3-------5-5--|
E|-----------------------------|

e|------------------------------------|
B|------------------------------------|
G|---------------------------77777777-|
D|-2222222222222222-55555555-77777777-| x4
A|-2222222222222222-55555555-55555555-|
E|-0000000000000000-33333333----------|

e|---------------------------------------------------------|
B|---------------------------------------------------------|
G|-66666666-66666666-1111111111111111-1111111111111111-----|
D|-66666666-66666666-1111111111111111-1111111111111111--2--|
A|-44444444-44444444-9-9-9-9-9-9-9-9--9-9-9-9-9-9-9-9---2--|
E|------------------------------------------------------0--|
Tap to rate this tab
 
# A B C D E F G H I J K L M N O P Q R S T U V W X Y Z