Song name
# A B C D E F G H I J K L M N O P Q R S T U V W X Y Z

Descendents - Rotting Out tab

It's a pretty simple song so i doubt theres alotta mistakes. But if you find any or have 
suggestions message me at adkband@yahoo.com cause im not on here alot and it would be a 
before i read any pms.

-----------------------------------------------------------------------------
			     Rotting Out - Descendents
-----------------------------------------------------------------------------
Tabbed by:aleckillscobra

Intro x3
e|--------------------------------------------------------------------------|
B|--------------------------------------------------------------------------|
G|--------------------------------------------------------------------------|
D|--------------------11-11-11-9-9------------------------------------------|
A|-11-11-11-11-11-11--9--9--9--7-7--9-9/11----------------------------------|
E|-9--9--9--9--9--9-----------------7-7/9-----------------------------------|

Intro (cont) x1
e|--------------------------------------------------------------------------|
B|--------------------------------------------------------------------------|
G|--------------------------------------------------------------------------|
D|--------------------------9-9-9-9-9-9-9-----------------------------------|
A|-11-11-11-11-11-11-11-11--7-7-7-7-7-7-7-----------------------------------|
E|-9--9--9--9--9--9--9--9---------------------------------------------------|

Verse
Shove all your problems under the rug...
e|--------------------------------------------------------------------------|
B|--------------------------------------------------------------------------|
G|--------------------------------------------------------------------------|
D|-----------9--9-9-7-7-7-7-7-7-7-7------------------7-7-7-7-7-7-7-7--------|
A|-7--7-7----7--7-7-5-5-5-5-5-5-5-5-4--4-4----7--7-7-5-5-5-5-5-5-5-5--------|
E|-5--5-5---------------------------2--2-2----5--5-5------------------------|

Chorus
Rotting out from the inside
e|--------------------------------------------------------------------------|
B|--------------------------------------------------------------------------|
G|--------------------------------------------------------------------------|
D|------------------7-7-7-7-7-7-7---------------------7-7-7-7-7-7-7-7-------|
A|-4-4-4-4-4-4-4-4--5-5-5-5-5-5-5-7--4-4-4-4-4-4-4-4--5-5-5-5-5-5-5-5-------|
E|-2-2-2-2-2-2-2-2----------------5--2-2-2-2-2-2-2-2------------------------|

Verse
This is your fucked up family...
e|--------------------------------------------------------------------------|
B|--------------------------------------------------------------------------|
G|--------------------------------------------------------------------------|
D|-----------9--9-9-7-7-7-7-7-7-7-7------------------7-7-7-7-7-7-7-7--------|
A|-7--7-7----7--7-7-5-5-5-5-5-5-5-5-4--4-4----7--7-7-5-5-5-5-5-5-5-5--------|
E|-5--5-5---------------------------2--2-2----5--5-5------------------------|

Chorus
Rotting out from the inside
e|--------------------------------------------------------------------------|
B|--------------------------------------------------------------------------|
G|--------------------------------------------------------------------------|
D|------------------7-7-7-7-7-7-7---------------------7-7-7-7-7-7-7-7-------|
A|-4-4-4-4-4-4-4-4--5-5-5-5-5-5-5-7--4-4-4-4-4-4-4-4--5-5-5-5-5-5-5-5-------|
E|-2-2-2-2-2-2-2-2----------------5--2-2-2-2-2-2-2-2------------------------|

Solo (over intro chords)
e|------------------------------------------------^12-----------------------|
B|-14-14-12-14-12-11-12-11-(x3)-14-14-12-14-14-14---------------------------|
G|--------------------------------------------------------------------------|
D|--------------------------------------------------------------------------|
A|--------------------------------------------------------------------------|
E|--------------------------------------------------------------------------|

Verse
The nuclear family is falling out...
e|--------------------------------------------------------------------------|
B|--------------------------------------------------------------------------|
G|--------------------------------------------------------------------------|
D|-----------9--9-9-7-7-7-7-7-7-7-7------------------7-7-7-7-7-7-7-7--------|
A|-7--7-7----7--7-7-5-5-5-5-5-5-5-5-4--4-4----7--7-7-5-5-5-5-5-5-5-5--------|
E|-5--5-5---------------------------2--2-2----5--5-5------------------------|

Chorus
Rotting out from the inside
e|--------------------------------------------------------------------------|
B|--------------------------------------------------------------------------|
G|--------------------------------------------------------------------------|
D|------------------7-7-7-7-7-7-7---------------------7-7-7-7-7-7-7-7-------|
A|-4-4-4-4-4-4-4-4--5-5-5-5-5-5-5-7--4-4-4-4-4-4-4-4--5-5-5-5-5-5-5-5-------|
E|-2-2-2-2-2-2-2-2----------------5--2-2-2-2-2-2-2-2------------------------|

Verse
So put me out of my misery...
e|--------------------------------------------------------------------------|
B|--------------------------------------------------------------------------|
G|--------------------------------------------------------------------------|
D|-----------9--9-9-7-7-7-7-7-7-7-7------------------7-7-7-7-7-7-7-7--------|
A|-7--7-7----7--7-7-5-5-5-5-5-5-5-5-4--4-4----7--7-7-5-5-5-5-5-5-5-5--------|
E|-5--5-5---------------------------2--2-2----5--5-5------------------------|

Chorus
Rotting out from the inside
e|--------------------------------------------------------------------------|
B|--------------------------------------------------------------------------|
G|--------------------------------------------------------------------------|
D|------------------7-7-7-7-7-7-7---------------------7-7-7-7-7-7-7-7-------|
A|-4-4-4-4-4-4-4-4--5-5-5-5-5-5-5-7--4-4-4-4-4-4-4-4--5-5-5-5-5-5-5-5-------|
E|-2-2-2-2-2-2-2-2----------------5--2-2-2-2-2-2-2-2------------------------|

Bridge
e|--------------------------------------------------------------------------|
B|--------------------------------------------------------------------------|
G|-9~----9-4~----4----------------------------------------------------------|
D|-9~----9-4~----4----------------------------------------------------------|
A|-7~----7-2~----2----------------------------------------------------------|
E|--------------------------------------------------------------------------|

Bridge 2 (x2)
Rotting out, rotting out, rotting out, rotting out
e|--------------------------------------------------------------------------|
B|--------------------------------------------------------------------------|
G|--------------------------------------------------------------------------|
D|-----------------7-7-7-7-7-7-7-7-----------------7-7-7-7-7-7-7-7----------|
A|-4-4-4-4-4-4-4-4-5-5-5-5-5-5-5-5-4-4-4-4-4-4-4-4-5-5-5-5-5-5-5-5----------|
E|-2-2-2-2-2-2-2-2-----------------2-2-2-2-2-2-2-2--------------------------|
PM * * * * * * * * * * * * * * * * * * * * * * * * * * * * * * * *

Intro x3
Beat my head..
e|--------------------------------------------------------------------------|
B|--------------------------------------------------------------------------|
G|--------------------------------------------------------------------------|
D|--------------------11-11-11-9-9------------------------------------------|
A|-11-11-11-11-11-11--9--9--9--7-7--9-9/11----------------------------------|
E|-9--9--9--9--9--9-----------------7-7/9-----------------------------------|

Intro (cont) x1
...Happen to me, no
e|--------------------------------------------------------------------------|
B|--------------------------------------------------------------------------|
G|--------------------------------------------------------------------------|
D|--------------------------9-9-9-9-9-9-9-----------------------------------|
A|-11-11-11-11-11-11-11-11--7-7-7-7-7-7-7-----------------------------------|
E|-9--9--9--9--9--9--9--9---------------------------------------------------|

Bridge 2 (x2)
Rotting out, rotting out, rotting out, rotting out
e|--------------------------------------------------------------------------|
B|--------------------------------------------------------------------------|
G|--------------------------------------------------------------------------|
D|-----------------7-7-7-7-7-7-7-7-----------------7-7-7-7-7-7-7-7--6~------|
A|-4-4-4-4-4-4-4-4-5-5-5-5-5-5-5-5-4-4-4-4-4-4-4-4-5-5-5-5-5-5-5-5--5~------|
E|-2-2-2-2-2-2-2-2-----------------2-2-2-2-2-2-2-2------------------4~------|
PM * * * * * * * * * * * * * * * * * * * * * * * * * * * * * * * *
Tap to rate this tab
# A B C D E F G H I J K L M N O P Q R S T U V W X Y Z