Song name
# A B C D E F G H I J K L M N O P Q R S T U V W X Y Z

Descendents - Van tab

The Descendents
Van
Somery


intro                        E
e------------------------0~~~~~~~~--|
B------------------------0~~~~~~~~--|
G------------------------1~~~~~~~~~-|
D------------------------2~~~~~~~~~-|
A---2--3-----------------2~~~~~~~~~-|
E---------4--5-----------0~~~~~~~~~-|



riff 1
e--------------------------|---------------|
B-------------------------|----------------|
G-------------------------|----------------|
D--------3--------3------|---3-------3-----|
A-----------3--5---------|------3--5-------|
E---3-----------------5--|3----------------|


riff 2
e----------------------|------------------|
B---------------------|-------------------|
G-----4-------4------|----4--------4------|
D--------4--6--------|--------4--6--------|
A---4-------------6--|--4-----------------|
E---------------------|-------------------|

riff 3                                                     E
e-----------------------------------------------|---0-|
B-----------------------------------------------|---0-|
G-----------------------------------------------|---1-|
D-----------------------------------------------|---2-|
A---4--2----4--2----4--2------4--4--5~~~~~~~~~~~|---2-|
E---------4-------4--------4--------------------|---0-|


riff 4
e----------------------------|-----------------------------|
B---------------------------|------------------------------|
G-----10----------12-----|------10-----------10------------|
D---------10--12---------|-----------10--12----------------|
A--10-----------------12-|--10-----------------------------|
E--------------------------|-------------------------------|


riff 5             strum this Ab, im too lazy to write it out alot of times
e---------------------------------------------------|-----|
B---------------------------------------------------|-----|
G---------------------------------------------------|-----|
D---------------------------------------------------|--6--|
A----------8----8----8--10--8--7--8--7---------|--6-------|
E---5--5----5----5-----------------------8--7----|--4-----|


in this order:
Intro
Riff 1
Riff2
Riff 1
Riff 2
Riff 3
Riff 4
Riff 2 (i play this on the 10th fret of the E string)
Riff 4
Riff 2 (this too)
Riff 3
Riff 5
( E chord)
Riff 1
Riff 2
Riff 1
Riff 2
Riff 3
Solo (in the key of Am)
( E Chord)
Riff 4
Riff 2 (i play this at the 10th fret of the E string)
Riff 4
Riff 2(this too)
Riff 3

this order seems crazy to remember, but its very easy, you will understand it as 
soon as you play it
Tap to rate this tab
# A B C D E F G H I J K L M N O P Q R S T U V W X Y Z